 0
SECTION
 2
ENTITIES
  0
LINE
 8
Layer0
10
202.56049791473848
20
592.0094249782347
30
0.0
11
202.30530756389103
21
593.2923535070594
31
0.0
  0
LINE
 8
Layer0
10
365.00000000000034
20
263.3000000000003
30
1.3535839116229907e-13
11
-4.088951399694451e-14
21
263.3
31
0.0
  0
LINE
 8
Layer0
10
-4.088951399694451e-14
20
263.3
30
0.0
11
-4.088951399694451e-14
21
267.98342897503676
31
-4.511946372076636e-14
  0
LINE
 8
Layer0
10
171.1947380777994
20
600.6186116697723
30
0.0
11
172.49999999999994
21
600.7041630560343
31
0.0
  0
LINE
 8
Layer0
10
359.9999999999997
20
267.9834289750368
30
0.0
11
365.00000000000006
21
267.98342897503716
31
1.3535839116229907e-13
  0
LINE
 8
Layer0
10
199.71711711286582
20
597.7752308678997
30
0.0
11
198.73366359108758
21
598.6376964589465
31
0.0
  0
LINE
 8
Layer0
10
195.23423975202556
20
600.3634213189249
30
0.0
11
193.95131122320086
21
600.6186116697723
31
0.0
  0
LINE
 8
Layer0
10
162.49999999999991
20
590.7041630560342
30
0.0
11
162.5855513862618
21
592.0094249782346
31
0.0
  0
LINE
 8
Layer0
10
202.30530756389103
20
593.2923535070594
30
0.0
11
201.88484462611325
21
594.5309973796851
31
0.0
  0
LINE
 8
Layer0
10
201.88484462611325
20
594.5309973796851
30
0.0
11
201.30630333884474
21
595.7041630560342
31
0.0
  0
LINE
 8
Layer0
10
201.30630333884474
20
595.7041630560342
30
0.0
11
200.5795827039127
21
596.7917773461214
31
0.0
  0
LINE
 8
Layer0
10
197.64604930100037
20
599.3644170938786
30
0.0
11
196.47288362465127
21
599.9429583811472
31
0.0
  0
LINE
 8
Layer0
10
4.999999999999946
20
580.7041630560342
30
0.0
11
162.49999999999991
21
580.7041630560342
31
0.0
  0
LINE
 8
Layer0
10
163.26120467488707
20
594.530997379685
30
0.0
11
163.83974596215552
21
595.7041630560342
31
0.0
  0
LINE
 8
Layer0
10
166.4123857099127
20
598.6376964589465
30
0.0
11
167.49999999999991
21
599.3644170938786
31
0.0
  0
LINE
 8
Layer0
10
164.56646659708755
20
596.7917773461214
30
0.0
11
165.42893218813444
21
597.7752308678996
31
0.0
  0
LINE
 8
Layer0
10
200.5795827039127
20
596.7917773461214
30
0.0
11
199.71711711286582
21
597.7752308678997
31
0.0
  0
LINE
 8
Layer0
10
165.42893218813444
20
597.7752308678996
30
0.0
11
166.4123857099127
21
598.6376964589465
31
0.0
  0
LINE
 8
Layer0
10
172.49999999999994
20
600.7041630560343
30
0.0
11
192.64604930100037
21
600.7041630560343
31
0.0
  0
LINE
 8
Layer0
10
4.9999999999999485
20
267.98342897503676
30
-4.511946372076636e-14
11
-4.088951399694451e-14
21
267.98342897503676
31
-4.511946372076636e-14
  0
LINE
 8
Layer0
10
196.47288362465127
20
599.9429583811472
30
0.0
11
195.23423975202556
21
600.3634213189249
31
0.0
  0
LINE
 8
Layer0
10
202.64604930100037
20
580.7041630560342
30
0.0
11
359.99999999999994
21
580.7041630560342
31
0.0
  0
LINE
 8
Layer0
10
359.99999999999994
20
580.7041630560342
30
0.0
11
359.9999999999997
21
267.9834289750368
31
0.0
  0
LINE
 8
Layer0
10
202.64604930100037
20
580.7041630560342
30
0.0
11
202.64604930100037
21
590.7041630560342
31
0.0
  0
LINE
 8
Layer0
10
167.49999999999991
20
599.3644170938786
30
0.0
11
168.67316567634902
21
599.9429583811472
31
0.0
  0
LINE
 8
Layer0
10
193.95131122320086
20
600.6186116697723
30
0.0
11
192.64604930100037
21
600.7041630560343
31
0.0
  0
LINE
 8
Layer0
10
198.73366359108758
20
598.6376964589465
30
0.0
11
197.64604930100037
21
599.3644170938786
31
0.0
  0
LINE
 8
Layer0
10
202.64604930100037
20
590.7041630560342
30
0.0
11
202.56049791473848
21
592.0094249782347
31
0.0
  0
LINE
 8
Layer0
10
365.00000000000006
20
267.98342897503716
30
1.3535839116229907e-13
11
365.00000000000034
21
263.3000000000003
31
1.3535839116229907e-13
  0
LINE
 8
Layer0
10
162.84074173710923
20
593.2923535070594
30
0.0
11
163.26120467488707
21
594.530997379685
31
0.0
  0
LINE
 8
Layer0
10
168.67316567634902
20
599.9429583811472
30
0.0
11
169.9118095489747
21
600.3634213189249
31
0.0
  0
LINE
 8
Layer0
10
163.83974596215552
20
595.7041630560342
30
0.0
11
164.56646659708755
21
596.7917773461214
31
0.0
  0
LINE
 8
Layer0
10
162.5855513862618
20
592.0094249782346
30
0.0
11
162.84074173710923
21
593.2923535070594
31
0.0
  0
LINE
 8
Layer0
10
4.9999999999999485
20
267.98342897503676
30
-4.511946372076636e-14
11
4.999999999999946
21
580.7041630560342
31
0.0
  0
LINE
 8
Layer0
10
162.49999999999991
20
580.7041630560342
30
0.0
11
162.49999999999991
21
590.7041630560342
31
0.0
  0
LINE
 8
Layer0
10
169.9118095489747
20
600.3634213189249
30
0.0
11
171.1947380777994
21
600.6186116697723
31
0.0
  0
LINE
 8
Layer0
10
732.8000000004478
20
207.4041630552589
30
3.4366703927091174e-12
11
732.800000000546
21
252.4041630552589
31
4.187622471008012e-12
  0
LINE
 8
Layer0
10
732.8000000003385
20
157.4041630552589
30
2.5991458985075153e-12
11
737.8000000003385
21
157.40416305524798
31
2.599145898507517e-12
  0
LINE
 8
Layer0
10
732.8000000001201
20
57.40416305525889
30
9.240969101043106e-13
11
737.8000000001201
21
57.40416305524797
31
9.290318514487715e-13
  0
LINE
 8
Layer0
10
737.8000000003385
20
157.40416305524798
30
2.599145898507517e-12
11
737.8000000004478
21
207.40416305524798
31
3.4366703927091194e-12
  0
LINE
 8
Layer0
10
652.8000000001748
20
82.40416305543361
30
1.3421541655844425e-12
11
642.8000000001747
21
82.40416305545546
31
1.3421541655844384e-12
  0
LINE
 8
Layer0
10
377.800000000546
20
252.40416305603424
30
4.187622471007869e-12
11
377.80000000044777
21
207.4041630560342
31
3.4310304597438787e-12
  0
LINE
 8
Layer0
10
377.8
20
2.4041630560342373
30
-1.4273203805593793e-25
11
642.8
21
2.4041630554554656
31
-3.618558711277299e-26
  0
LINE
 8
Layer0
10
732.8000000002293
20
107.40416305525889
30
1.7616214043059128e-12
11
732.8000000003385
21
157.4041630552589
31
2.5991458985075153e-12
  0
LINE
 8
Layer0
10
652.8000000000001
20
2.4041630554336253
30
-3.216496632246488e-26
11
732.8
21
2.404163055258902
31
0.0
  0
LINE
 8
Layer0
10
642.8000000001747
20
82.40416305545546
30
1.3421541655844384e-12
11
642.8
21
2.4041630554554656
31
-3.618558711277299e-26
  0
LINE
 8
Layer0
10
732.800000000546
20
252.4041630552589
30
4.187622471008012e-12
11
377.800000000546
21
252.40416305603424
31
4.187622471007869e-12
  0
LINE
 8
Layer0
10
377.8000000001201
20
57.40416305603422
30
9.18456977139072e-13
11
372.8000000001201
21
57.40416305604514
31
9.1845697713907e-13
  0
LINE
 8
Layer0
10
377.8000000002294
20
107.40416305603422
30
1.7559814713406745e-12
11
372.8000000002294
21
107.40416305604514
31
1.7559814713406725e-12
  0
LINE
 8
Layer0
10
732.8000000002293
20
107.40416305525889
30
1.7616214043059128e-12
11
737.8000000002294
21
107.40416305524796
31
1.7665563456503738e-12
  0
LINE
 8
Layer0
10
737.8000000001201
20
57.40416305524797
30
9.290318514487715e-13
11
737.8000000002294
21
107.40416305524796
31
1.7665563456503738e-12
  0
LINE
 8
Layer0
10
377.80000000033857
20
157.4041630560342
30
2.5935059655422766e-12
11
377.8000000002294
21
107.40416305603422
31
1.7559814713406745e-12
  0
LINE
 8
Layer0
10
652.8000000000001
20
2.4041630554336253
30
-3.216496632246488e-26
11
652.8000000001748
21
82.40416305543361
31
1.3421541655844425e-12
  0
LINE
 8
Layer0
10
377.80000000033857
20
157.4041630560342
30
2.5935059655422766e-12
11
372.80000000033834
21
157.40416305604515
31
2.593505965542275e-12
  0
LINE
 8
Layer0
10
732.8000000004478
20
207.4041630552589
30
3.4366703927091174e-12
11
737.8000000004478
21
207.40416305524798
31
3.4366703927091194e-12
  0
LINE
 8
Layer0
10
377.8000000001201
20
57.40416305603422
30
9.18456977139072e-13
11
377.8
21
2.4041630560342373
31
-1.4273203805593793e-25
  0
LINE
 8
Layer0
10
377.80000000044777
20
207.4041630560342
30
3.4310304597438787e-12
11
372.80000000044754
21
207.40416305604515
31
3.4310304597438766e-12
  0
LINE
 8
Layer0
10
372.8000000002294
20
107.40416305604514
30
1.7559814713406725e-12
11
372.8000000001201
21
57.40416305604514
31
9.1845697713907e-13
  0
LINE
 8
Layer0
10
372.80000000044754
20
207.40416305604515
30
3.4310304597438766e-12
11
372.80000000033834
21
157.40416305604515
31
2.593505965542275e-12
  0
LINE
 8
Layer0
10
732.8
20
2.404163055258902
30
0.0
11
732.8000000001201
21
57.40416305525889
31
9.240969101043106e-13
  0
LINE
 8
Layer0
10
360.0000000002293
20
107.40416305525889
30
3.4170583029791142e-12
11
365.0000000002293
21
107.40416305524796
31
3.4170583029791142e-12
  0
LINE
 8
Layer0
10
5.000000000447711
20
207.4041630560342
30
6.671399543911595e-12
11
5.000000000545981
21
252.40416305603424
31
8.135853102331216e-12
  0
LINE
 8
Layer0
10
5.000000000120099
20
57.40416305603422
30
1.78988768251286e-12
11
1.2010801242468006e-10
21
57.40416305604514
31
1.78988768251286e-12
  0
LINE
 8
Layer0
10
3.384862168331892e-10
20
157.40416305604515
30
5.04422892344535e-12
11
4.476753190374438e-10
21
207.40416305604515
31
6.671399543911595e-12
  0
LINE
 8
Layer0
10
5.000000000229333
20
107.40416305603422
30
3.4170583029791053e-12
11
2.293422340926554e-10
21
107.40416305604514
31
3.4170583029791053e-12
  0
LINE
 8
Layer0
10
360.00000000012005
20
57.40416305525889
30
1.7898876825128692e-12
11
365.00000000012005
21
57.40416305524797
31
1.7898876825128692e-12
  0
LINE
 8
Layer0
10
5.000000000229333
20
107.40416305603422
30
3.4170583029791053e-12
11
5.000000000338522
21
157.4041630560342
31
5.04422892344535e-12
  0
LINE
 8
Layer0
10
360.0000000004477
20
207.4041630552589
30
6.671399543911604e-12
11
365.0000000004477
21
207.40416305524798
31
6.671399543911604e-12
  0
LINE
 8
Layer0
10
365.0000000004477
20
207.40416305524798
30
6.671399543911604e-12
11
365.0000000003385
21
157.40416305524798
31
5.044228923445359e-12
  0
LINE
 8
Layer0
10
365.0000000002293
20
107.40416305524796
30
3.4170583029791142e-12
11
365.00000000012005
21
57.40416305524797
31
1.7898876825128692e-12
  0
LINE
 8
Layer0
10
5.000000000447711
20
207.4041630560342
30
6.671399543911595e-12
11
4.476753190374438e-10
21
207.40416305604515
31
6.671399543911595e-12
  0
LINE
 8
Layer0
10
5.000000000338522
20
157.4041630560342
30
5.04422892344535e-12
11
3.384862168331892e-10
21
157.40416305604515
31
5.04422892344535e-12
  0
LINE
 8
Layer0
10
360.0000000003385
20
157.4041630552589
30
5.044228923445359e-12
11
365.0000000003385
21
157.40416305524798
31
5.044228923445359e-12
  0
LINE
 8
Layer0
10
360.0000000003385
20
157.4041630552589
30
5.044228923445359e-12
11
360.0000000002293
21
107.40416305525889
31
3.4170583029791142e-12
  0
LINE
 8
Layer0
10
360.0
20
2.4041630552588984
30
0.0
11
4.999999999999991
21
2.404163056034234
31
-8.924101676839344e-27
  0
LINE
 8
Layer0
10
1.2010801242468006e-10
20
57.40416305604514
30
1.78988768251286e-12
11
2.293422340926554e-10
21
107.40416305604514
31
3.4170583029791053e-12
  0
LINE
 8
Layer0
10
5.000000000545981
20
252.40416305603424
30
8.135853102331216e-12
11
360.000000000546
21
252.4041630552589
31
8.135853102331225e-12
  0
LINE
 8
Layer0
10
4.999999999999991
20
2.404163056034234
30
-8.924101676839344e-27
11
5.000000000120099
21
57.40416305603422
31
1.78988768251286e-12
  0
LINE
 8
Layer0
10
360.000000000546
20
252.4041630552589
30
8.135853102331225e-12
11
360.0000000004477
21
207.4041630552589
31
6.671399543911604e-12
  0
LINE
 8
Layer0
10
360.00000000012005
20
57.40416305525889
30
1.7898876825128692e-12
11
360.0
21
2.4041630552588984
31
0.0
  0
LINE
 8
Layer0
10
638.2602540385217
20
573.2999999994299
30
3.891670102243315e-06
11
639.2592582635733
21
575.7118095484024
31
3.9065567271358466e-06
  0
LINE
 8
Layer0
10
626.2000000006883
20
578.2999999994562
30
3.711954668145223e-06
11
626.3158521913035
21
577.4200152461074
31
3.7136810353231147e-06
  0
LINE
 8
Layer0
10
620.9397459628549
20
583.2999999994677
30
3.6335691851437044e-06
11
619.9407417378033
21
580.888190450495
31
3.6186825602511724e-06
  0
LINE
 8
Layer0
10
632.1881904517345
20
587.9592582623337
30
3.801187468962775e-06
11
629.6000000007101
21
588.2999999994488
31
3.76261964369351e-06
  0
LINE
 8
Layer0
10
632.884147810073
20
579.1799847527901
30
3.8115582520639042e-06
11
632.544486373559
21
579.9999999994424
31
3.8064967996004433e-06
  0
LINE
 8
Layer0
10
627.0118095496842
20
587.9592582623451
30
3.724051818424244e-06
11
624.6000000007072
21
586.960254037304
31
3.688112326710735e-06
  0
LINE
 8
Layer0
10
629.6000000007101
20
588.2999999994488
30
3.76261964369351e-06
11
627.0118095496842
21
587.9592582623451
31
3.724051818424244e-06
  0
LINE
 8
Layer0
10
532.1000000006883
20
578.2999999996616
30
2.309726961119418e-06
11
532.1000000006774
21
573.2999999996617
31
2.30972696182441e-06
  0
LINE
 8
Layer0
10
622.5289321888382
20
585.3710678113297
30
3.6572503855204382e-06
11
620.9397459628549
21
583.2999999994677
31
3.6335691851437044e-06
  0
LINE
 8
Layer0
10
619.9407417378033
20
580.888190450495
30
3.6186825602511724e-06
11
619.6000000006883
21
578.2999999994706
31
3.61360500972796e-06
  0
LINE
 8
Layer0
10
619.6000000006883
20
578.2999999994706
30
3.61360500972796e-06
11
582.1000000006883
21
578.2999999995525
31
3.054800131652158e-06
  0
LINE
 8
Layer0
10
626.3158521913035
20
577.4200152461074
30
3.7136810353231147e-06
11
626.6555136278175
21
576.5999999994552
31
3.7187424877865757e-06
  0
LINE
 8
Layer0
10
626.6555136278175
20
576.5999999994552
30
3.7187424877865757e-06
11
627.1958369446488
21
575.8958369434197
31
3.726794095914665e-06
  0
LINE
 8
Layer0
10
627.1958369446488
20
575.8958369434197
30
3.726794095914665e-06
11
627.9000000006818
21
575.3555136265854
31
3.7372871559193656e-06
  0
LINE
 8
Layer0
10
627.9000000006818
20
575.3555136265854
30
3.7372871559193656e-06
11
628.7200152473325
21
575.0158521900679
31
3.749506583101959e-06
  0
LINE
 8
Layer0
10
628.7200152473325
20
575.0158521900679
30
3.749506583101959e-06
11
629.6000000006809
21
574.8999999994487
31
3.76261964369351e-06
  0
LINE
 8
Layer0
10
629.6000000006809
20
574.8999999994487
30
3.76261964369351e-06
11
630.4799847540297
21
575.015852190064
31
3.77573270428506e-06
  0
LINE
 8
Layer0
10
630.4799847540297
20
575.015852190064
30
3.77573270428506e-06
11
631.3000000006818
21
575.355513626578
31
3.7879521314676533e-06
  0
LINE
 8
Layer0
10
631.3000000006818
20
575.355513626578
30
3.7879521314676533e-06
11
632.0041630567173
21
575.8958369434092
31
3.798445191472354e-06
  0
LINE
 8
Layer0
10
632.0041630567173
20
575.8958369434092
30
3.798445191472354e-06
11
632.5444863735516
21
576.5999999994423
31
3.8064967996004433e-06
  0
LINE
 8
Layer0
10
632.5444863735516
20
576.5999999994423
30
3.8064967996004433e-06
11
632.8841478100692
21
577.420015246093
31
3.8115582520639042e-06
  0
LINE
 8
Layer0
10
632.8841478100692
20
577.420015246093
30
3.8115582520639042e-06
11
633.0000000006883
21
578.2999999994413
31
3.813284619241796e-06
  0
LINE
 8
Layer0
10
633.0000000006883
20
578.2999999994413
30
3.813284619241796e-06
11
632.884147810073
21
579.1799847527901
31
3.8115582520639042e-06
  0
LINE
 8
Layer0
10
632.544486373559
20
579.9999999994424
30
3.8064967996004433e-06
11
632.0041630567277
21
580.7041630554777
31
3.798445191472354e-06
  0
LINE
 8
Layer0
10
632.0041630567277
20
580.7041630554777
30
3.798445191472354e-06
11
631.3000000006947
21
581.2444863723122
31
3.7879521314676533e-06
  0
LINE
 8
Layer0
10
631.3000000006947
20
581.2444863723122
30
3.7879521314676533e-06
11
630.479984754044
21
581.5841478088297
31
3.77573270428506e-06
  0
LINE
 8
Layer0
10
630.479984754044
20
581.5841478088297
30
3.77573270428506e-06
11
629.6000000006957
21
581.6999999994488
31
3.76261964369351e-06
  0
LINE
 8
Layer0
10
629.6000000006957
20
581.6999999994488
30
3.76261964369351e-06
11
628.7200152473469
21
581.5841478088334
31
3.749506583101959e-06
  0
LINE
 8
Layer0
10
628.7200152473469
20
581.5841478088334
30
3.749506583101959e-06
11
627.9000000006947
21
581.2444863723196
31
3.7372871559193656e-06
  0
LINE
 8
Layer0
10
627.9000000006947
20
581.2444863723196
30
3.7372871559193656e-06
11
627.1958369446593
21
580.7041630554883
31
3.726794095914665e-06
  0
LINE
 8
Layer0
10
627.1958369446593
20
580.7041630554883
30
3.726794095914665e-06
11
626.6555136278249
21
579.9999999994552
31
3.7187424877865757e-06
  0
LINE
 8
Layer0
10
626.6555136278249
20
579.9999999994552
30
3.7187424877865757e-06
11
626.3158521913074
21
579.1799847528046
31
3.7136810353231147e-06
  0
LINE
 8
Layer0
10
626.3158521913074
20
579.1799847528046
30
3.7136810353231147e-06
11
626.2000000006883
21
578.2999999994562
31
3.711954668145223e-06
  0
LINE
 8
Layer0
10
624.6000000007072
20
586.960254037304
30
3.688112326710735e-06
11
622.5289321888382
21
585.3710678113297
31
3.6572503855204382e-06
  0
LINE
 8
Layer0
10
634.6000000007072
20
586.9602540372822
30
3.837126960676284e-06
11
632.1881904517345
21
587.9592582623337
31
3.801187468962775e-06
  0
LINE
 8
Layer0
10
636.6710678125692
20
585.3710678112988
30
3.867988901866581e-06
11
634.6000000007072
21
586.9602540372822
31
3.837126960676284e-06
  0
LINE
 8
Layer0
10
638.2602540385435
20
583.2999999994298
30
3.891670102243315e-06
11
636.6710678125692
21
585.3710678112988
31
3.867988901866581e-06
  0
LINE
 8
Layer0
10
639.2592582635846
20
580.888190450453
30
3.9065567271358466e-06
11
638.2602540385435
21
583.2999999994298
31
3.891670102243315e-06
  0
LINE
 8
Layer0
10
639.6000000006883
20
578.299999999427
30
3.911634277659059e-06
11
639.2592582635846
21
580.888190450453
31
3.9065567271358466e-06
  0
LINE
 8
Layer0
10
639.2592582635733
20
575.7118095484024
30
3.9065567271358466e-06
11
639.6000000006883
21
578.299999999427
31
3.911634277659059e-06
  0
LINE
 8
Layer0
10
636.6710678125384
20
571.2289321875678
30
3.867988901866581e-06
11
638.2602540385217
21
573.2999999994299
31
3.891670102243315e-06
  0
LINE
 8
Layer0
10
634.6000000006694
20
569.6397459615935
30
3.837126960676284e-06
11
636.6710678125384
21
571.2289321875678
31
3.867988901866581e-06
  0
LINE
 8
Layer0
10
632.1881904516923
20
568.6407417365524
30
3.801187468962775e-06
11
634.6000000006694
21
569.6397459615935
31
3.837126960676284e-06
  0
LINE
 8
Layer0
10
632.1000000006671
20
568.6291312434117
30
3.799873302184897e-06
11
632.1881904516923
21
568.6407417365524
31
3.801187468962775e-06
  0
LINE
 8
Layer0
10
632.1000000000003
20
263.29999999944334
30
3.7998733014799054e-06
11
632.1000000006671
21
568.6291312434117
31
3.799873302184897e-06
  0
LINE
 8
Layer0
10
582.1000000000003
20
263.29999999955254
30
3.054800131652158e-06
11
632.1000000000003
21
263.29999999944334
31
3.7998733014799054e-06
  0
LINE
 8
Layer0
10
582.1000000000003
20
263.29999999955254
30
3.054800131652158e-06
11
582.1000000000113
21
268.29999999955254
31
3.054800131652158e-06
  0
LINE
 8
Layer0
10
532.1000000000113
20
268.29999999966174
30
2.3097269604144266e-06
11
582.1000000000113
21
268.29999999955254
31
3.054800131652158e-06
  0
LINE
 8
Layer0
10
532.1000000000003
20
263.29999999966174
30
2.3097269604144266e-06
11
532.1000000000113
21
268.29999999966174
31
2.3097269604144266e-06
  0
LINE
 8
Layer0
10
482.10000000000025
20
263.29999999977093
30
1.5646537912916699e-06
11
532.1000000000003
21
263.29999999966174
31
2.3097269604144266e-06
  0
LINE
 8
Layer0
10
482.10000000000025
20
263.29999999977093
30
1.5646537912916699e-06
11
482.1000000000113
21
268.29999999977093
31
1.5646537912916699e-06
  0
LINE
 8
Layer0
10
432.1000000000113
20
268.29999999988013
30
8.195806221689138e-07
11
482.1000000000113
21
268.29999999977093
31
1.5646537912916699e-06
  0
LINE
 8
Layer0
10
432.10000000000036
20
263.29999999988013
30
8.195806221689138e-07
11
432.1000000000113
21
268.29999999988013
31
8.195806221689138e-07
  0
LINE
 8
Layer0
10
377.1000000000003
20
263.30000000000024
30
1.3535839116226526e-13
11
432.10000000000036
21
263.29999999988013
31
8.195806221689138e-07
  0
LINE
 8
Layer0
10
377.1000000006883
20
578.3000000000002
30
1.3535839116229907e-13
11
377.1000000000003
21
263.30000000000024
31
1.3535839116226526e-13
  0
LINE
 8
Layer0
10
432.1000000006882
20
578.2999999998801
30
8.195806228739055e-07
11
377.1000000006883
21
578.3000000000002
31
1.3535839116229907e-13
  0
LINE
 8
Layer0
10
432.1000000006882
20
578.2999999998801
30
8.195806228739055e-07
11
432.1000000006774
21
573.2999999998801
31
8.195806278088468e-07
  0
LINE
 8
Layer0
10
482.1000000006774
20
573.2999999997709
30
1.5646537962266113e-06
11
432.1000000006774
21
573.2999999998801
31
8.195806278088468e-07
  0
LINE
 8
Layer0
10
482.1000000006882
20
578.2999999997709
30
1.5646537912916699e-06
11
482.1000000006774
21
573.2999999997709
31
1.5646537962266113e-06
  0
LINE
 8
Layer0
10
532.1000000006883
20
578.2999999996616
30
2.309726961119418e-06
11
482.1000000006882
21
578.2999999997709
31
1.5646537912916699e-06
  0
LINE
 8
Layer0
10
582.1000000006774
20
573.2999999995525
30
3.0548001323571493e-06
11
532.1000000006774
21
573.2999999996617
31
2.30972696182441e-06
  0
LINE
 8
Layer0
10
582.1000000006883
20
578.2999999995525
30
3.054800131652158e-06
11
582.1000000006774
21
573.2999999995525
31
3.0548001323571493e-06
  0
LINE
 8
Layer0
10
747.8000000006765
20
570.5000000003272
30
5.469177333239373e-11
11
697.8000000006765
21
570.5000000004364
31
7.291885983917724e-11
  0
LINE
 8
Layer0
10
892.0158521913027
20
574.6200152466637
30
1.7130018883492016e-12
11
891.9000000006874
21
575.5000000000125
31
1.755234846356783e-12
  0
LINE
 8
Layer0
10
892.3555136278167
20
573.8000000000116
30
1.5891811206213842e-12
11
892.0158521913027
21
574.6200152466637
31
1.7130018883492016e-12
  0
LINE
 8
Layer0
10
892.8958369446481
20
573.0958369439761
30
1.392210723870507e-12
11
892.3555136278167
21
573.8000000000116
31
1.5891811206213842e-12
  0
LINE
 8
Layer0
10
893.6000000006811
20
572.5555136271417
30
1.1355139051261549e-12
11
892.8958369446481
21
573.0958369439761
31
1.392210723870507e-12
  0
LINE
 8
Layer0
10
894.4200152473318
20
572.2158521906242
30
8.365841283742111e-13
11
893.6000000006811
21
572.5555136271417
31
1.1355139051261549e-12
  0
LINE
 8
Layer0
10
895.30000000068
20
572.100000000005
30
5.157929638955065e-13
11
894.4200152473318
21
572.2158521906242
31
8.365841283742111e-13
  0
LINE
 8
Layer0
10
896.1799847540289
20
572.2158521906204
30
1.9500179941680173e-13
11
895.30000000068
21
572.100000000005
31
5.157929638955065e-13
  0
LINE
 8
Layer0
10
897.0000000006811
20
572.5555136271344
30
-1.0392797733513181e-13
11
896.1799847540289
21
572.2158521906204
31
1.9500179941680173e-13
  0
LINE
 8
Layer0
10
897.7041630567167
20
573.0958369439655
30
-3.6062479607947376e-13
11
897.0000000006811
21
572.5555136271344
31
-1.0392797733513181e-13
  0
LINE
 8
Layer0
10
897.8000000006825
20
573.2207340809971
30
-3.955613614436747e-13
11
897.7041630567167
21
573.0958369439655
31
-3.6062479607947376e-13
  0
LINE
 8
Layer0
10
897.7999999999996
20
260.49999999999966
30
1.0513812043181491e-14
11
897.8000000006664
21
565.8291312439682
31
-3.460565167754383e-14
  0
LINE
 8
Layer0
10
847.7999999999996
20
260.50000000010886
30
1.8237600318826693e-11
11
897.7999999999996
21
260.49999999999966
31
1.0513812043181491e-14
  0
LINE
 8
Layer0
10
847.7999999999996
20
260.50000000010886
30
1.8237600318826693e-11
11
847.8000000000104
21
265.50000000010886
31
1.8237600318826693e-11
  0
LINE
 8
Layer0
10
797.8000000006875
20
575.500000000218
30
3.646468682561023e-11
11
797.8000000006765
21
570.500000000218
31
3.646468682561023e-11
  0
LINE
 8
Layer0
10
697.7999999999996
20
260.5000000004365
30
7.291885983917719e-11
11
697.8000000000105
21
265.5000000004365
31
7.291885983917719e-11
  0
LINE
 8
Layer0
10
797.8000000000104
20
265.50000000021805
30
3.646468682561019e-11
11
847.8000000000104
21
265.50000000010886
31
1.8237600318826693e-11
  0
LINE
 8
Layer0
10
797.7999999999996
20
260.50000000021805
30
3.646468682561019e-11
11
797.8000000000104
21
265.50000000021805
31
3.646468682561019e-11
  0
LINE
 8
Layer0
10
747.7999999999996
20
260.50000000032725
30
5.469177333239368e-11
11
797.7999999999996
21
260.50000000021805
31
3.646468682561019e-11
  0
LINE
 8
Layer0
10
747.7999999999996
20
260.50000000032725
30
5.469177333239368e-11
11
747.8000000000104
21
265.50000000032725
31
5.469177333239368e-11
  0
LINE
 8
Layer0
10
697.8000000000105
20
265.5000000004365
30
7.291885983917719e-11
11
747.8000000000104
21
265.50000000032725
31
5.469177333239368e-11
  0
LINE
 8
Layer0
10
642.7999999999995
20
260.5000000005566
30
9.296865499663904e-11
11
697.7999999999996
21
260.5000000004365
31
7.291885983917719e-11
  0
LINE
 8
Layer0
10
642.8000000006875
20
575.5000000005566
30
9.296865499663908e-11
11
642.7999999999995
21
260.5000000005566
31
9.296865499663904e-11
  0
LINE
 8
Layer0
10
697.8000000006875
20
575.5000000004364
30
7.291885983917724e-11
11
642.8000000006875
21
575.5000000005566
31
9.296865499663908e-11
  0
LINE
 8
Layer0
10
697.8000000006875
20
575.5000000004364
30
7.291885983917724e-11
11
697.8000000006765
21
570.5000000004364
31
7.291885983917724e-11
  0
LINE
 8
Layer0
10
747.8000000006875
20
575.5000000003273
30
5.469177333239373e-11
11
747.8000000006765
21
570.5000000003272
31
5.469177333239373e-11
  0
LINE
 8
Layer0
10
797.8000000006875
20
575.500000000218
30
3.646468682561023e-11
11
747.8000000006875
21
575.5000000003273
31
5.469177333239373e-11
  0
LINE
 8
Layer0
10
847.8000000006765
20
570.5000000001088
30
1.8237600318826732e-11
11
797.8000000006765
21
570.500000000218
31
3.646468682561023e-11
  0
LINE
 8
Layer0
10
847.8000000006875
20
575.5000000001088
30
1.8237600318826732e-11
11
847.8000000006765
21
570.5000000001088
31
1.8237600318826732e-11
  0
LINE
 8
Layer0
10
885.3000000006875
20
575.500000000027
30
4.522165975018331e-12
11
847.8000000006875
21
575.5000000001088
31
1.8237600318826732e-11
  0
LINE
 8
Layer0
10
885.6407417378024
20
578.0881904510513
30
4.397951392643085e-12
11
886.639745962854
21
580.500000000024
31
4.0337726640318505e-12
  0
LINE
 8
Layer0
10
897.7041630567271
20
577.904163056034
30
-3.6062479607947376e-13
11
898.2444863735582
21
577.1999999999987
31
-5.575951928303507e-13
  0
LINE
 8
Layer0
10
902.3710678125376
20
568.4289321881242
30
-1.7009506203824426e-12
11
900.3000000006685
21
566.8397459621498
31
-9.459599770167044e-13
  0
LINE
 8
Layer0
10
904.9592582635839
20
578.0881904510093
30
-2.64445404531979e-12
11
905.3000000006874
21
575.4999999999833
31
-2.7686686276950463e-12
  0
LINE
 8
Layer0
10
891.9000000006874
20
575.5000000000125
30
1.755234846356783e-12
11
892.0158521913065
21
576.3799847533609
31
1.7130018883492016e-12
  0
LINE
 8
Layer0
10
897.8881904516916
20
565.8407417371087
30
-6.675475127571013e-14
11
897.8000000006664
21
565.8291312439682
31
-3.460565167754383e-14
  0
LINE
 8
Layer0
10
892.0158521913065
20
576.3799847533609
30
1.7130018883492016e-12
11
892.3555136278242
21
577.2000000000115
31
1.5891811206213842e-12
  0
LINE
 8
Layer0
10
898.2444863735582
20
577.1999999999987
30
-5.575951928303507e-13
11
898.5841478100723
21
576.3799847533465
31
-6.814159605581784e-13
  0
LINE
 8
Layer0
10
885.3000000006875
20
575.500000000027
30
4.522165975018331e-12
11
885.6407417378024
21
578.0881904510513
31
4.397951392643085e-12
  0
LINE
 8
Layer0
10
903.9602540385429
20
580.4999999999862
30
-2.2802753167085756e-12
11
904.9592582635839
21
578.0881904510093
31
-2.64445404531979e-12
  0
LINE
 8
Layer0
10
903.960254038521
20
570.4999999999862
30
-2.2802753167085756e-12
11
902.3710678125376
21
568.4289321881242
31
-1.7009506203824426e-12
  0
LINE
 8
Layer0
10
900.3000000006685
20
566.8397459621498
30
-9.459599770167044e-13
11
897.8881904516916
21
565.8407417371087
31
-6.675475127571013e-14
  0
LINE
 8
Layer0
10
905.3000000006874
20
575.4999999999833
30
-2.7686686276950463e-12
11
904.9592582635726
21
572.9118095489588
31
-2.64445404531979e-12
  0
LINE
 8
Layer0
10
898.244486373551
20
573.7999999999986
30
-5.575951928303507e-13
11
897.8000000006825
21
573.2207340809971
31
-3.955613614436747e-13
  0
LINE
 8
Layer0
10
904.9592582635726
20
572.9118095489588
30
-2.64445404531979e-12
11
903.960254038521
21
570.4999999999862
31
-2.2802753167085756e-12
  0
LINE
 8
Layer0
10
886.639745962854
20
580.500000000024
30
4.0337726640318505e-12
11
888.2289321888376
21
582.571067811886
31
3.4544479677057377e-12
  0
LINE
 8
Layer0
10
890.3000000007064
20
584.1602540378603
30
2.6994573243399894e-12
11
892.7118095496834
21
585.1592582629014
31
1.820252098598995e-12
  0
LINE
 8
Layer0
10
896.1799847540433
20
578.784147809386
30
1.9500179941682225e-13
11
897.0000000006941
21
578.4444863728685
31
-1.0392797733513181e-13
  0
LINE
 8
Layer0
10
894.420015247346
20
578.7841478093898
30
8.365841283742111e-13
11
895.300000000695
21
578.9000000000051
31
5.157929638955065e-13
  0
LINE
 8
Layer0
10
902.3710678125683
20
582.5710678118551
30
-1.7009506203824426e-12
11
903.9602540385429
21
580.4999999999862
31
-2.2802753167085756e-12
  0
LINE
 8
Layer0
10
897.0000000006941
20
578.4444863728685
30
-1.0392797733513181e-13
11
897.7041630567271
21
577.904163056034
31
-3.6062479607947376e-13
  0
LINE
 8
Layer0
10
892.8958369446585
20
577.9041630560446
30
1.392210723870507e-12
11
893.600000000694
21
578.4444863728759
31
1.1355139051261549e-12
  0
LINE
 8
Layer0
10
895.300000000695
20
578.9000000000051
30
5.157929638955065e-13
11
896.1799847540433
21
578.784147809386
31
1.9500179941682225e-13
  0
LINE
 8
Layer0
10
892.7118095496834
20
585.1592582629014
30
1.820252098598995e-12
11
895.3000000007092
21
585.5000000000051
31
8.767486736616373e-13
  0
LINE
 8
Layer0
10
888.2289321888376
20
582.571067811886
30
3.4544479677057377e-12
11
890.3000000007064
21
584.1602540378603
31
2.6994573243399894e-12
  0
LINE
 8
Layer0
10
892.3555136278242
20
577.2000000000115
30
1.5891811206213842e-12
11
892.8958369446585
21
577.9041630560446
31
1.392210723870507e-12
  0
LINE
 8
Layer0
10
898.7000000006875
20
575.4999999999976
30
-7.236489185657701e-13
11
898.5841478100683
21
574.6200152466494
31
-6.814159605581784e-13
  0
LINE
 8
Layer0
10
898.5841478100683
20
574.6200152466494
30
-6.814159605581784e-13
11
898.244486373551
21
573.7999999999986
31
-5.575951928303507e-13
  0
LINE
 8
Layer0
10
893.600000000694
20
578.4444863728759
30
1.1355139051261549e-12
11
894.420015247346
21
578.7841478093898
31
8.365841283742111e-13
  0
LINE
 8
Layer0
10
898.5841478100723
20
576.3799847533465
30
-6.814159605581784e-13
11
898.7000000006875
21
575.4999999999976
31
-7.236489185657701e-13
  0
LINE
 8
Layer0
10
895.3000000007092
20
585.5000000000051
30
8.767486736616373e-13
11
897.8881904517339
21
585.15925826289
31
-6.675475127571013e-14
  0
LINE
 8
Layer0
10
897.8881904517339
20
585.15925826289
30
-6.675475127571013e-14
11
900.3000000007063
21
584.1602540378385
31
-9.459599770167044e-13
  0
LINE
 8
Layer0
10
900.3000000007063
20
584.1602540378385
30
-9.459599770167044e-13
11
902.3710678125683
21
582.5710678118551
31
-1.7009506203824426e-12
 0
ENDSEC
 0
EOF
