 0
SECTION
 2
ENTITIES
  0
POLYLINE
 8
Layer0
 66
     1
70
    8
 10
0.0
 20
 0.0
 30
0.0
  0
VERTEX
  8
MY3DLAYER
10
153.99999999999994
20
0.13346918773962724
30
3.000000000009385
 70
     32
  0
VERTEX
  8
MY3DLAYER
10
168.99999999999991
20
0.13346918773617558
30
3.000000000009385
 70
     32
  0
VERTEX
  8
MY3DLAYER
10
169.0000000000006
20
3.133469187736328
30
3.000000000009385
 70
     32
  0
VERTEX
  8
MY3DLAYER
10
184.00000000000063
20
3.133469187732865
30
3.000000000009385
 70
     32
  0
VERTEX
  8
MY3DLAYER
10
183.99999999999994
20
0.13346918773271269
30
3.000000000009385
 70
     32
  0
VERTEX
  8
MY3DLAYER
10
194.99999999999997
20
0.13346918773017472
30
3.000000000009385
 70
     32
  0
VERTEX
  8
MY3DLAYER
10
195.0000000000031
20
13.633469187730284
30
3.000000000009385
 70
     32
  0
VERTEX
  8
MY3DLAYER
10
192.00000000000307
20
13.633469187730974
30
3.000000000009385
 70
     32
  0
VERTEX
  8
MY3DLAYER
10
192.00000000000537
20
23.633469187731045
30
3.000000000009385
 70
     32
  0
VERTEX
  8
MY3DLAYER
10
195.0000000000054
20
23.633469187730356
30
3.000000000009385
 70
     32
  0
VERTEX
  8
MY3DLAYER
10
195.0000000000077
20
33.63346918773024
30
3.000000000009385
 70
     32
  0
VERTEX
  8
MY3DLAYER
10
192.0000000000077
20
33.63346918773094
30
3.000000000009385
 70
     32
  0
VERTEX
  8
MY3DLAYER
10
192.00000000001
20
43.63346918773101
30
3.000000000009385
 70
     32
  0
VERTEX
  8
MY3DLAYER
10
195.00000000001
20
43.63346918773031
30
3.000000000009385
 70
     32
  0
VERTEX
  8
MY3DLAYER
10
195.0000000000123
20
53.63346918773021
30
3.000000000009385
 70
     32
  0
VERTEX
  8
MY3DLAYER
10
192.0000000000123
20
53.6334691877309
30
3.000000000009385
 70
     32
  0
VERTEX
  8
MY3DLAYER
10
192.0000000000146
20
63.63346918773079
30
3.000000000009385
 70
     32
  0
VERTEX
  8
MY3DLAYER
10
195.0000000000146
20
63.63346918773011
30
3.000000000009385
 70
     32
  0
VERTEX
  8
MY3DLAYER
10
195.00000000001774
20
77.13346918773016
30
3.000000000009385
 70
     32
  0
VERTEX
  8
MY3DLAYER
10
184.00000000001768
20
77.1334691877327
30
3.000000000009385
 70
     32
  0
VERTEX
  8
MY3DLAYER
10
184.000000000017
20
74.13346918773269
30
3.000000000009385
 70
     32
  0
VERTEX
  8
MY3DLAYER
10
169.00000000001697
20
74.13346918773614
30
3.000000000009385
 70
     32
  0
VERTEX
  8
MY3DLAYER
10
169.00000000001768
20
77.13346918773615
30
3.000000000009385
 70
     32
  0
VERTEX
  8
MY3DLAYER
10
154.0000000000177
20
77.1334691877396
30
3.000000000009385
 70
     32
  0
VERTEX
  8
MY3DLAYER
10
154.000000000017
20
74.1334691877396
30
3.000000000009385
 70
     32
  0
VERTEX
  8
MY3DLAYER
10
139.00000000001708
20
74.13346918774307
30
3.000000000009385
 70
     32
  0
VERTEX
  8
MY3DLAYER
10
139.00000000001776
20
77.13346918774307
30
3.000000000009385
 70
     32
  0
VERTEX
  8
MY3DLAYER
10
124.00000000001775
20
77.13346918774653
30
3.000000000009385
 70
     32
  0
VERTEX
  8
MY3DLAYER
10
124.00000000001705
20
74.13346918774651
30
3.000000000009385
 70
     32
  0
VERTEX
  8
MY3DLAYER
10
109.00000000001708
20
74.13346918774998
30
3.000000000009385
 70
     32
  0
VERTEX
  8
MY3DLAYER
10
109.00000000001778
20
77.13346918774998
30
3.000000000009385
 70
     32
  0
VERTEX
  8
MY3DLAYER
10
98.00000000001772
20
77.13346918775252
30
3.000000000009385
 70
     32
  0
VERTEX
  8
MY3DLAYER
10
98.00000000001461
20
63.633469187752475
30
3.000000000009385
 70
     32
  0
VERTEX
  8
MY3DLAYER
10
101.00000000001464
20
63.633469187751786
30
3.000000000009385
 70
     32
  0
VERTEX
  8
MY3DLAYER
10
101.00000000001234
20
53.63346918775189
30
3.000000000009385
 70
     32
  0
VERTEX
  8
MY3DLAYER
10
98.0000000000123
20
53.63346918775258
30
3.000000000009385
 70
     32
  0
VERTEX
  8
MY3DLAYER
10
98.00000000000999
20
43.63346918775268
30
3.000000000009385
 70
     32
  0
VERTEX
  8
MY3DLAYER
10
101.00000000001002
20
43.63346918775199
30
3.000000000009385
 70
     32
  0
VERTEX
  8
MY3DLAYER
10
101.00000000000772
20
33.63346918775192
30
3.000000000009385
 70
     32
  0
VERTEX
  8
MY3DLAYER
10
98.00000000000769
20
33.63346918775261
30
3.0000000000093907
 70
     32
  0
VERTEX
  8
MY3DLAYER
10
98.00000000000539
20
23.633469187752727
30
3.000000000009385
 70
     32
  0
VERTEX
  8
MY3DLAYER
10
101.00000000000541
20
23.633469187752038
30
3.000000000009385
 70
     32
  0
VERTEX
  8
MY3DLAYER
10
101.00000000000311
20
13.633469187751965
30
3.000000000009385
 70
     32
  0
VERTEX
  8
MY3DLAYER
10
98.00000000000308
20
13.633469187752654
30
3.0000000000093907
 70
     32
  0
VERTEX
  8
MY3DLAYER
10
97.99999999999997
20
0.13346918775254268
30
3.0000000000093907
 70
     32
  0
VERTEX
  8
MY3DLAYER
10
109.00000000000003
20
0.13346918775000471
30
3.0000000000093907
 70
     32
  0
VERTEX
  8
MY3DLAYER
10
109.0000000000007
20
3.133469187750157
30
3.000000000009385
 70
     32
  0
VERTEX
  8
MY3DLAYER
10
124.00000000000068
20
3.133469187746694
30
3.000000000009385
 70
     32
  0
VERTEX
  8
MY3DLAYER
10
124.0
20
0.1334691877465418
30
3.000000000009385
 70
     32
  0
VERTEX
  8
MY3DLAYER
10
139.00000000000003
20
0.13346918774309016
30
3.0000000000093907
 70
     32
  0
VERTEX
  8
MY3DLAYER
10
139.00000000000068
20
3.1334691877432426
30
3.000000000009385
 70
     32
  0
VERTEX
  8
MY3DLAYER
10
154.00000000000063
20
3.1334691877397796
30
3.000000000009385
 70
     32
  0
VERTEX
  8
MY3DLAYER
10
153.99999999999994
20
0.13346918773962724
30
3.000000000009385
 70
     32
  0
SEQEND
  0
POLYLINE
 8
Layer0
 66
     1
70
    8
 10
0.0
 20
 0.0
 30
0.0
  0
VERTEX
  8
MY3DLAYER
10
159.2244616318258
20
45.30299326110044
30
3.000000000009379
 70
     32
  0
VERTEX
  8
MY3DLAYER
10
158.88337776763228
20
45.246680087212596
30
3.000000000009379
 70
     32
  0
VERTEX
  8
MY3DLAYER
10
158.11863309059552
20
45.06836663784283
30
3.000000000009379
 70
     32
  0
VERTEX
  8
MY3DLAYER
10
157.36718804818776
20
44.840418276315454
30
3.000000000009379
 70
     32
  0
VERTEX
  8
MY3DLAYER
10
156.63226044344455
20
44.563811112509796
30
3.000000000009379
 70
     32
  0
VERTEX
  8
MY3DLAYER
10
155.91699734919757
20
44.239729620766774
30
3.000000000009379
 70
     32
  0
VERTEX
  8
MY3DLAYER
10
155.22446163182548
20
43.86956156778794
30
3.000000000009379
 70
     32
  0
VERTEX
  8
MY3DLAYER
10
154.55761883559015
20
43.45489207000538
30
3.000000000009379
 70
     32
  0
VERTEX
  8
MY3DLAYER
10
154.2766166951399
20
43.25352878380764
30
3.000000000009402
 70
     32
  0
VERTEX
  8
MY3DLAYER
10
145.7344172443187
20
51.79572823463176
30
3.000000000009402
 70
     32
  0
VERTEX
  8
MY3DLAYER
10
146.6141873356182
20
52.517736889366326
30
3.000000000009379
 70
     32
  0
VERTEX
  8
MY3DLAYER
10
147.89077603935726
20
53.43252741763747
30
3.000000000009379
 70
     32
  0
VERTEX
  8
MY3DLAYER
10
149.2244616318279
20
54.2618664132026
30
3.000000000009379
 70
     32
  0
VERTEX
  8
MY3DLAYER
10
150.609533066572
20
55.00220251916027
30
3.000000000009379
 70
     32
  0
VERTEX
  8
MY3DLAYER
10
152.04005925506604
20
55.6503655026463
30
3.000000000009379
 70
     32
  0
VERTEX
  8
MY3DLAYER
10
153.50991446455245
20
56.20357983025762
30
3.000000000009379
 70
     32
  0
VERTEX
  8
MY3DLAYER
10
155.01280454936796
20
56.65947655331237
30
3.000000000009379
 70
     32
  0
VERTEX
  8
MY3DLAYER
10
156.54229390344142
20
57.01610345205191
30
3.000000000009379
 70
     32
  0
VERTEX
  8
MY3DLAYER
10
158.09183301854733
20
57.27193339534547
30
3.000000000009379
 70
     32
  0
VERTEX
  8
MY3DLAYER
10
159.2244616318286
20
57.383487576949754
30
3.000000000009379
 70
     32
  0
VERTEX
  8
MY3DLAYER
10
159.2244616318258
20
45.30299326110044
30
3.000000000009379
 70
     32
  0
SEQEND
  0
POLYLINE
 8
Layer0
 66
     1
70
    8
 10
0.0
 20
 0.0
 30
0.0
  0
VERTEX
  8
MY3DLAYER
10
182.74940742861006
20
44.09218528762436
30
3.000000000009379
 70
     32
  0
VERTEX
  8
MY3DLAYER
10
183.3975704120961
20
42.66165909913033
30
3.000000000009379
 70
     32
  0
VERTEX
  8
MY3DLAYER
10
183.95078473970742
20
41.19180388964393
30
3.000000000009379
 70
     32
  0
VERTEX
  8
MY3DLAYER
10
184.40668146276215
20
39.68891380482843
30
3.000000000009379
 70
     32
  0
VERTEX
  8
MY3DLAYER
10
184.7633083615017
20
38.15942445075493
30
3.000000000009379
 70
     32
  0
VERTEX
  8
MY3DLAYER
10
185.01913830479523
20
36.60988533564903
30
3.000000000009379
 70
     32
  0
VERTEX
  8
MY3DLAYER
10
185.1306924863995
20
35.47725672236779
30
3.000000000009379
 70
     32
  0
VERTEX
  8
MY3DLAYER
10
173.05019817055026
20
35.47725672237057
30
3.000000000009379
 70
     32
  0
VERTEX
  8
MY3DLAYER
10
172.9938849966624
20
35.81834058656411
30
3.000000000009379
 70
     32
  0
VERTEX
  8
MY3DLAYER
10
172.81557154729262
20
36.58308526360087
30
3.000000000009379
 70
     32
  0
VERTEX
  8
MY3DLAYER
10
172.58762318576524
20
37.33453030600861
30
3.000000000009379
 70
     32
  0
VERTEX
  8
MY3DLAYER
10
172.31101602195957
20
38.069457910751815
30
3.000000000009379
 70
     32
  0
VERTEX
  8
MY3DLAYER
10
171.98693453021656
20
38.78472100499883
30
3.000000000009379
 70
     32
  0
VERTEX
  8
MY3DLAYER
10
171.61676647723775
20
39.477256722370896
30
3.000000000009379
 70
     32
  0
VERTEX
  8
MY3DLAYER
10
171.20209697945515
20
40.144099518606225
30
3.000000000009379
 70
     32
  0
VERTEX
  8
MY3DLAYER
10
171.00073369325733
20
40.42510165905659
30
3.000000000009379
 70
     32
  0
VERTEX
  8
MY3DLAYER
10
179.54293314408156
20
48.9673011098777
30
3.000000000009379
 70
     32
  0
VERTEX
  8
MY3DLAYER
10
180.2649417988161
20
48.0875310185782
30
3.000000000009379
 70
     32
  0
VERTEX
  8
MY3DLAYER
10
181.17973232708724
20
46.810942314839146
30
3.000000000009379
 70
     32
  0
VERTEX
  8
MY3DLAYER
10
182.00907132265237
20
45.477256722368494
30
3.000000000009379
 70
     32
  0
VERTEX
  8
MY3DLAYER
10
182.74940742861006
20
44.09218528762436
30
3.000000000009379
 70
     32
  0
SEQEND
  0
POLYLINE
 8
Layer0
 66
     1
70
    8
 10
0.0
 20
 0.0
 30
0.0
  0
VERTEX
  8
MY3DLAYER
10
185.1306924863986
20
31.477256722367784
30
3.000000000009379
 70
     32
  0
VERTEX
  8
MY3DLAYER
10
185.0191383047938
20
30.344628109086777
30
3.000000000009379
 70
     32
  0
VERTEX
  8
MY3DLAYER
10
184.7633083614996
20
28.795088993980976
30
3.000000000009379
 70
     32
  0
VERTEX
  8
MY3DLAYER
10
184.40668146275934
20
27.265599639907624
30
3.000000000009379
 70
     32
  0
VERTEX
  8
MY3DLAYER
10
183.95078473970392
20
25.76270955509236
30
3.000000000009379
 70
     32
  0
VERTEX
  8
MY3DLAYER
10
183.3975704120919
20
24.29285434560618
30
3.000000000009379
 70
     32
  0
VERTEX
  8
MY3DLAYER
10
182.74940742860522
20
22.86232815711245
30
3.000000000009379
 70
     32
  0
VERTEX
  8
MY3DLAYER
10
182.00907132264695
20
21.477256722368644
30
3.000000000009379
 70
     32
  0
VERTEX
  8
MY3DLAYER
10
181.17973232708118
20
20.14357112989837
30
3.000000000009379
 70
     32
  0
VERTEX
  8
MY3DLAYER
10
180.26494179880945
20
18.86698242615973
30
3.000000000009379
 70
     32
  0
VERTEX
  8
MY3DLAYER
10
179.5429331440744
20
17.987212334860452
30
3.000000000009379
 70
     32
  0
VERTEX
  8
MY3DLAYER
10
171.00073369325332
20
26.529411785684367
30
3.000000000009379
 70
     32
  0
VERTEX
  8
MY3DLAYER
10
171.20209697945214
20
26.810413926135812
30
3.000000000009379
 70
     32
  0
VERTEX
  8
MY3DLAYER
10
171.616766477235
20
27.47725672237095
30
3.000000000009379
 70
     32
  0
VERTEX
  8
MY3DLAYER
10
171.98693453021417
20
28.16979243974286
30
3.000000000009379
 70
     32
  0
VERTEX
  8
MY3DLAYER
10
172.3110160219575
20
28.885055533989735
30
3.000000000009379
 70
     32
  0
VERTEX
  8
MY3DLAYER
10
172.5876231857635
20
29.61998313873282
30
3.000000000009379
 70
     32
  0
VERTEX
  8
MY3DLAYER
10
172.81557154729123
20
30.37142818114046
30
3.000000000009379
 70
     32
  0
VERTEX
  8
MY3DLAYER
10
172.9938849966613
20
31.136172858177144
30
3.000000000009379
 70
     32
  0
VERTEX
  8
MY3DLAYER
10
173.05019817054932
20
31.477256722370566
30
3.000000000009379
 70
     32
  0
VERTEX
  8
MY3DLAYER
10
185.1306924863986
20
31.477256722367784
30
3.000000000009379
 70
     32
  0
SEQEND
  0
POLYLINE
 8
Layer0
 66
     1
70
    8
 10
0.0
 20
 0.0
 30
0.0
  0
VERTEX
  8
MY3DLAYER
10
147.89077603934797
20
13.521986027115325
30
3.000000000009379
 70
     32
  0
VERTEX
  8
MY3DLAYER
10
146.61418733560933
20
14.43677655538707
30
3.000000000009379
 70
     32
  0
VERTEX
  8
MY3DLAYER
10
145.7344172443107
20
15.158785210121621
30
3.000000000009402
 70
     32
  0
VERTEX
  8
MY3DLAYER
10
154.27661669513475
20
23.700984660942627
30
3.000000000009402
 70
     32
  0
VERTEX
  8
MY3DLAYER
10
154.55761883558552
20
23.499621374744315
30
3.000000000009379
 70
     32
  0
VERTEX
  8
MY3DLAYER
10
155.22446163182065
20
23.08495187696143
30
3.000000000009379
 70
     32
  0
VERTEX
  8
MY3DLAYER
10
155.91699734919257
20
22.714783823982287
30
3.000000000009379
 70
     32
  0
VERTEX
  8
MY3DLAYER
10
156.63226044343943
20
22.390702332238916
30
3.000000000009379
 70
     32
  0
VERTEX
  8
MY3DLAYER
10
157.36718804818247
20
22.11409516843292
30
3.000000000009379
 70
     32
  0
VERTEX
  8
MY3DLAYER
10
158.11863309059018
20
21.886146806905195
30
3.000000000009379
 70
     32
  0
VERTEX
  8
MY3DLAYER
10
158.88337776762683
20
21.70783335753508
30
3.000000000009379
 70
     32
  0
VERTEX
  8
MY3DLAYER
10
159.2244616318204
20
21.65152018364706
30
3.000000000009379
 70
     32
  0
VERTEX
  8
MY3DLAYER
10
159.22446163181755
20
9.57102586779774
30
3.000000000009379
 70
     32
  0
VERTEX
  8
MY3DLAYER
10
158.09183301853636
20
9.682580049402555
30
3.000000000009379
 70
     32
  0
VERTEX
  8
MY3DLAYER
10
156.54229390343056
20
9.938409992696819
30
3.000000000009379
 70
     32
  0
VERTEX
  8
MY3DLAYER
10
155.0128045493572
20
10.295036891437062
30
3.000000000009379
 70
     32
  0
VERTEX
  8
MY3DLAYER
10
153.50991446454194
20
10.75093361449253
30
3.000000000009379
 70
     32
  0
VERTEX
  8
MY3DLAYER
10
152.04005925505575
20
11.30414794210452
30
3.000000000009379
 70
     32
  0
VERTEX
  8
MY3DLAYER
10
150.60953306656202
20
11.952310925591226
30
3.000000000009379
 70
     32
  0
VERTEX
  8
MY3DLAYER
10
149.22446163181823
20
12.692647031549548
30
3.000000000009379
 70
     32
  0
VERTEX
  8
MY3DLAYER
10
147.89077603934797
20
13.521986027115325
30
3.000000000009379
 70
     32
  0
SEQEND
  0
POLYLINE
 8
Layer0
 66
     1
70
    8
 10
0.0
 20
 0.0
 30
0.0
  0
VERTEX
  8
MY3DLAYER
10
168.17230656851183
20
43.25352878380367
30
3.000000000009379
 70
     32
  0
VERTEX
  8
MY3DLAYER
10
167.8913044280606
20
43.454892070002295
30
3.000000000009379
 70
     32
  0
VERTEX
  8
MY3DLAYER
10
167.22446163182545
20
43.869561567785176
30
3.000000000009379
 70
     32
  0
VERTEX
  8
MY3DLAYER
10
166.53192591445358
20
44.23972962076433
30
3.000000000009379
 70
     32
  0
VERTEX
  8
MY3DLAYER
10
165.81666282020672
20
44.56381111250767
30
3.000000000009379
 70
     32
  0
VERTEX
  8
MY3DLAYER
10
165.08173521546362
20
44.84041827631366
30
3.000000000009379
 70
     32
  0
VERTEX
  8
MY3DLAYER
10
164.330290173056
20
45.06836663784139
30
3.000000000009379
 70
     32
  0
VERTEX
  8
MY3DLAYER
10
163.56554549601933
20
45.246680087211516
30
3.000000000009379
 70
     32
  0
VERTEX
  8
MY3DLAYER
10
163.22446163182582
20
45.302993261099516
30
3.000000000009379
 70
     32
  0
VERTEX
  8
MY3DLAYER
10
163.2244616318286
20
57.38348757694883
30
3.000000000009379
 70
     32
  0
VERTEX
  8
MY3DLAYER
10
164.35709024510982
20
57.271933395344014
30
3.000000000009379
 70
     32
  0
VERTEX
  8
MY3DLAYER
10
165.90662936021562
20
57.01610345204974
30
3.000000000009379
 70
     32
  0
VERTEX
  8
MY3DLAYER
10
167.43611871428894
20
56.659476553309496
30
3.000000000009379
 70
     32
  0
VERTEX
  8
MY3DLAYER
10
168.9390087991042
20
56.20357983025405
30
3.000000000009379
 70
     32
  0
VERTEX
  8
MY3DLAYER
10
170.40886400859037
20
55.65036550264206
30
3.000000000009379
 70
     32
  0
VERTEX
  8
MY3DLAYER
10
171.83939019708407
20
55.00220251915537
30
3.000000000009379
 70
     32
  0
VERTEX
  8
MY3DLAYER
10
173.2244616318279
20
54.261866413197055
30
3.000000000009379
 70
     32
  0
VERTEX
  8
MY3DLAYER
10
174.55814722429812
20
53.4325274176313
30
3.000000000009379
 70
     32
  0
VERTEX
  8
MY3DLAYER
10
175.83473592803676
20
52.51773688935957
30
3.000000000009379
 70
     32
  0
VERTEX
  8
MY3DLAYER
10
176.714506019336
20
51.79572823462454
30
3.000000000009379
 70
     32
  0
VERTEX
  8
MY3DLAYER
10
168.17230656851183
20
43.25352878380367
30
3.000000000009379
 70
     32
  0
SEQEND
  0
POLYLINE
 8
Layer0
 66
     1
70
    8
 10
0.0
 20
 0.0
 30
0.0
  0
VERTEX
  8
MY3DLAYER
10
151.24682628419407
20
40.14409951861084
30
3.000000000009379
 70
     32
  0
VERTEX
  8
MY3DLAYER
10
150.8321567864112
20
39.477256722375714
30
3.000000000009379
 70
     32
  0
VERTEX
  8
MY3DLAYER
10
150.46198873343204
20
38.78472100500381
30
3.000000000009379
 70
     32
  0
VERTEX
  8
MY3DLAYER
10
150.13790724168868
20
38.06945791075694
30
3.000000000009379
 70
     32
  0
VERTEX
  8
MY3DLAYER
10
149.8613000778827
20
37.334530306013875
30
3.000000000009379
 70
     32
  0
VERTEX
  8
MY3DLAYER
10
149.63335171635495
20
36.583085263606236
30
3.000000000009379
 70
     32
  0
VERTEX
  8
MY3DLAYER
10
149.45503826698484
20
35.818340586569576
30
3.000000000009379
 70
     32
  0
VERTEX
  8
MY3DLAYER
10
149.39872509309683
20
35.477256722376026
30
3.000000000009379
 70
     32
  0
VERTEX
  8
MY3DLAYER
10
137.31823077724755
20
35.47725672237881
30
3.000000000009379
 70
     32
  0
VERTEX
  8
MY3DLAYER
10
137.4297849588524
20
36.60988533566007
30
3.000000000009379
 70
     32
  0
VERTEX
  8
MY3DLAYER
10
137.68561490214668
20
38.15942445076585
30
3.000000000009379
 70
     32
  0
VERTEX
  8
MY3DLAYER
10
138.04224180088693
20
39.68891380483918
30
3.000000000009379
 70
     32
  0
VERTEX
  8
MY3DLAYER
10
138.49813852394237
20
41.19180388965445
30
3.000000000009379
 70
     32
  0
VERTEX
  8
MY3DLAYER
10
139.05135285155436
20
42.66165909914061
30
3.000000000009379
 70
     32
  0
VERTEX
  8
MY3DLAYER
10
139.69951583504107
20
44.09218528763432
30
3.000000000009379
 70
     32
  0
VERTEX
  8
MY3DLAYER
10
140.43985194099935
20
45.47725672237812
30
3.000000000009379
 70
     32
  0
VERTEX
  8
MY3DLAYER
10
141.2691909365651
20
46.81094231484838
30
3.000000000009379
 70
     32
  0
VERTEX
  8
MY3DLAYER
10
142.18398146483685
20
48.087531018587
30
3.000000000009379
 70
     32
  0
VERTEX
  8
MY3DLAYER
10
142.9059901195719
20
48.96730110988631
30
3.000000000009402
 70
     32
  0
VERTEX
  8
MY3DLAYER
10
151.44818957039269
20
40.425101659062065
30
3.000000000009402
 70
     32
  0
VERTEX
  8
MY3DLAYER
10
151.24682628419407
20
40.14409951861084
30
3.000000000009379
 70
     32
  0
SEQEND
  0
POLYLINE
 8
Layer0
 66
     1
70
    8
 10
0.0
 20
 0.0
 30
0.0
  0
VERTEX
  8
MY3DLAYER
10
168.93900879909378
20
10.750933614488998
30
3.000000000009379
 70
     32
  0
VERTEX
  8
MY3DLAYER
10
167.43611871427828
20
10.29503689143422
30
3.000000000009379
 70
     32
  0
VERTEX
  8
MY3DLAYER
10
165.9066293602048
20
9.938409992694687
30
3.000000000009379
 70
     32
  0
VERTEX
  8
MY3DLAYER
10
164.35709024509887
20
9.6825800494011
30
3.000000000009379
 70
     32
  0
VERTEX
  8
MY3DLAYER
10
163.22446163181758
20
9.571025867796825
30
3.000000000009379
 70
     32
  0
VERTEX
  8
MY3DLAYER
10
163.22446163182036
20
21.651520183646145
30
3.000000000009379
 70
     32
  0
VERTEX
  8
MY3DLAYER
10
163.56554549601393
20
21.707833357534007
30
3.000000000009379
 70
     32
  0
VERTEX
  8
MY3DLAYER
10
164.33029017305066
20
21.886146806903785
30
3.000000000009379
 70
     32
  0
VERTEX
  8
MY3DLAYER
10
165.08173521545842
20
22.114095168431174
30
3.000000000009379
 70
     32
  0
VERTEX
  8
MY3DLAYER
10
165.81666282020166
20
22.39070233223683
30
3.000000000009379
 70
     32
  0
VERTEX
  8
MY3DLAYER
10
166.53192591444864
20
22.71478382397984
30
3.000000000009379
 70
     32
  0
VERTEX
  8
MY3DLAYER
10
167.22446163182073
20
23.08495187695869
30
3.000000000009379
 70
     32
  0
VERTEX
  8
MY3DLAYER
10
167.89130442805603
20
23.499621374741235
30
3.000000000009379
 70
     32
  0
VERTEX
  8
MY3DLAYER
10
168.17230656850646
20
23.700984660939096
30
3.000000000009379
 70
     32
  0
VERTEX
  8
MY3DLAYER
10
176.7145060193274
20
15.158785210114752
30
3.000000000009379
 70
     32
  0
VERTEX
  8
MY3DLAYER
10
175.83473592802807
20
14.436776555380359
30
3.000000000009379
 70
     32
  0
VERTEX
  8
MY3DLAYER
10
174.558147224289
20
13.5219860271092
30
3.000000000009379
 70
     32
  0
VERTEX
  8
MY3DLAYER
10
173.22446163181837
20
12.692647031544032
30
3.000000000009379
 70
     32
  0
VERTEX
  8
MY3DLAYER
10
171.8393901970742
20
11.952310925586353
30
3.000000000009379
 70
     32
  0
VERTEX
  8
MY3DLAYER
10
170.4088640085802
20
11.304147942100311
30
3.000000000009379
 70
     32
  0
VERTEX
  8
MY3DLAYER
10
168.93900879909378
20
10.750933614488998
30
3.000000000009379
 70
     32
  0
SEQEND
  0
POLYLINE
 8
Layer0
 66
     1
70
    8
 10
0.0
 20
 0.0
 30
0.0
  0
VERTEX
  8
MY3DLAYER
10
149.45503826698373
20
31.1361728581825
30
3.000000000009379
 70
     32
  0
VERTEX
  8
MY3DLAYER
10
149.63335171635353
20
30.37142818114576
30
3.000000000009379
 70
     32
  0
VERTEX
  8
MY3DLAYER
10
149.86130007788088
20
29.619983138737997
30
3.000000000009379
 70
     32
  0
VERTEX
  8
MY3DLAYER
10
150.13790724168655
20
28.8850555339948
30
3.000000000009379
 70
     32
  0
VERTEX
  8
MY3DLAYER
10
150.46198873342956
20
28.169792439747777
30
3.000000000009379
 70
     32
  0
VERTEX
  8
MY3DLAYER
10
150.8321567864084
20
27.47725672237572
30
3.000000000009379
 70
     32
  0
VERTEX
  8
MY3DLAYER
10
151.24682628419094
20
26.81041392614039
30
3.000000000009379
 70
     32
  0
VERTEX
  8
MY3DLAYER
10
151.4481895703892
20
26.52941178568942
30
3.000000000009402
 70
     32
  0
VERTEX
  8
MY3DLAYER
10
142.90599011956496
20
17.987212334868495
30
3.000000000009402
 70
     32
  0
VERTEX
  8
MY3DLAYER
10
142.18398146483003
20
18.86698242616847
30
3.000000000009379
 70
     32
  0
VERTEX
  8
MY3DLAYER
10
141.26919093655889
20
20.143571129907517
30
3.000000000009379
 70
     32
  0
VERTEX
  8
MY3DLAYER
10
140.43985194099378
20
21.47725672237815
30
3.000000000009379
 70
     32
  0
VERTEX
  8
MY3DLAYER
10
139.6995158350361
20
22.862328157122295
30
3.000000000009379
 70
     32
  0
VERTEX
  8
MY3DLAYER
10
139.0513528515501
20
24.29285434561632
30
3.000000000009379
 70
     32
  0
VERTEX
  8
MY3DLAYER
10
138.4981385239388
20
25.762709555102724
30
3.000000000009379
 70
     32
  0
VERTEX
  8
MY3DLAYER
10
138.04224180088403
20
27.265599639918204
30
3.000000000009379
 70
     32
  0
VERTEX
  8
MY3DLAYER
10
137.6856149021445
20
28.79508899399169
30
3.000000000009379
 70
     32
  0
VERTEX
  8
MY3DLAYER
10
137.42978495885095
20
30.344628109097616
30
3.000000000009379
 70
     32
  0
VERTEX
  8
MY3DLAYER
10
137.31823077724667
20
31.477256722378804
30
3.000000000009379
 70
     32
  0
VERTEX
  8
MY3DLAYER
10
149.39872509309592
20
31.47725672237602
30
3.000000000009379
 70
     32
  0
VERTEX
  8
MY3DLAYER
10
149.45503826698373
20
31.1361728581825
30
3.000000000009379
 70
     32
  0
SEQEND
  0
POLYLINE
 8
Layer0
 66
     1
70
    8
 10
0.0
 20
 0.0
 30
0.0
  0
VERTEX
  8
MY3DLAYER
10
180.68094163711194
20
51.448812487161746
30
3.0000000000093623
 70
     32
  0
VERTEX
  8
MY3DLAYER
10
180.17446163182728
20
51.6586033744216
30
3.0000000000093623
 70
     32
  0
VERTEX
  8
MY3DLAYER
10
179.7395373913356
20
51.99233248187727
30
3.0000000000093623
 70
     32
  0
VERTEX
  8
MY3DLAYER
10
179.40580828388013
20
52.42725672236911
30
3.0000000000093623
 70
     32
  0
VERTEX
  8
MY3DLAYER
10
179.19601739662053
20
52.93373672765386
30
3.0000000000093623
 70
     32
  0
VERTEX
  8
MY3DLAYER
10
179.12446163182773
20
53.477256722369184
30
3.0000000000093623
 70
     32
  0
VERTEX
  8
MY3DLAYER
10
179.1960173966208
20
54.020776717084445
30
3.0000000000093623
 70
     32
  0
VERTEX
  8
MY3DLAYER
10
179.40580828388065
20
54.5272567223691
30
3.0000000000093623
 70
     32
  0
VERTEX
  8
MY3DLAYER
10
179.7395373913363
20
54.96218096286078
30
3.0000000000093623
 70
     32
  0
VERTEX
  8
MY3DLAYER
10
180.17446163182814
20
55.295910070316246
30
3.0000000000093623
 70
     32
  0
VERTEX
  8
MY3DLAYER
10
180.68094163711288
20
55.505700957575854
30
3.0000000000093623
 70
     32
  0
VERTEX
  8
MY3DLAYER
10
181.22446163182818
20
55.57725672236868
30
3.0000000000093623
 70
     32
  0
VERTEX
  8
MY3DLAYER
10
181.76798162654347
20
55.50570095757559
30
3.0000000000093623
 70
     32
  0
VERTEX
  8
MY3DLAYER
10
182.27446163182813
20
55.29591007031575
30
3.0000000000093623
 70
     32
  0
VERTEX
  8
MY3DLAYER
10
182.70938587231979
20
54.96218096286008
30
3.0000000000093623
 70
     32
  0
VERTEX
  8
MY3DLAYER
10
183.04311497977528
20
54.52725672236826
30
3.0000000000093623
 70
     32
  0
VERTEX
  8
MY3DLAYER
10
183.25290586703488
20
54.0207767170835
30
3.0000000000093623
 70
     32
  0
VERTEX
  8
MY3DLAYER
10
183.32446163182772
20
53.47725672236819
30
3.0000000000093623
 70
     32
  0
VERTEX
  8
MY3DLAYER
10
183.25290586703463
20
52.9337367276529
30
3.0000000000093623
 70
     32
  0
VERTEX
  8
MY3DLAYER
10
183.0431149797748
20
52.42725672236825
30
3.0000000000093623
 70
     32
  0
VERTEX
  8
MY3DLAYER
10
182.7093858723191
20
51.992332481876566
30
3.0000000000093623
 70
     32
  0
VERTEX
  8
MY3DLAYER
10
182.27446163182728
20
51.658603374421105
30
3.0000000000093623
 70
     32
  0
VERTEX
  8
MY3DLAYER
10
181.7679816265425
20
51.4488124871615
30
3.0000000000093623
 70
     32
  0
VERTEX
  8
MY3DLAYER
10
181.2244616318272
20
51.37725672236868
30
3.0000000000093623
 70
     32
  0
VERTEX
  8
MY3DLAYER
10
180.68094163711194
20
51.448812487161746
30
3.0000000000093623
 70
     32
  0
SEQEND
  0
POLYLINE
 8
Layer0
 66
     1
70
    8
 10
0.0
 20
 0.0
 30
0.0
  0
VERTEX
  8
MY3DLAYER
10
139.1244616318277
20
53.4772567223784
30
3.0000000000093623
 70
     32
  0
VERTEX
  8
MY3DLAYER
10
139.19601739662082
20
54.02077671709366
30
3.0000000000093623
 70
     32
  0
VERTEX
  8
MY3DLAYER
10
139.40580828388067
20
54.527256722378326
30
3.0000000000093623
 70
     32
  0
VERTEX
  8
MY3DLAYER
10
139.7395373913363
20
54.96218096286999
30
3.0000000000093623
 70
     32
  0
VERTEX
  8
MY3DLAYER
10
140.17446163182814
20
55.29591007032546
30
3.0000000000093623
 70
     32
  0
VERTEX
  8
MY3DLAYER
10
140.68094163711288
20
55.50570095758507
30
3.0000000000093623
 70
     32
  0
VERTEX
  8
MY3DLAYER
10
141.22446163182818
20
55.577256722377896
30
3.0000000000093623
 70
     32
  0
VERTEX
  8
MY3DLAYER
10
141.76798162654347
20
55.50570095758481
30
3.0000000000093623
 70
     32
  0
VERTEX
  8
MY3DLAYER
10
142.27446163182813
20
55.29591007032498
30
3.0000000000093623
 70
     32
  0
VERTEX
  8
MY3DLAYER
10
142.7093858723198
20
54.9621809628693
30
3.0000000000093623
 70
     32
  0
VERTEX
  8
MY3DLAYER
10
143.04311497977528
20
54.52725672237748
30
3.0000000000093623
 70
     32
  0
VERTEX
  8
MY3DLAYER
10
143.25290586703488
20
54.020776717092716
30
3.0000000000093623
 70
     32
  0
VERTEX
  8
MY3DLAYER
10
143.3244616318277
20
53.47725672237742
30
3.0000000000093623
 70
     32
  0
VERTEX
  8
MY3DLAYER
10
143.25290586703463
20
52.93373672766213
30
3.0000000000093623
 70
     32
  0
VERTEX
  8
MY3DLAYER
10
143.04311497977477
20
52.427256722377486
30
3.0000000000093623
 70
     32
  0
VERTEX
  8
MY3DLAYER
10
142.7093858723191
20
51.99233248188581
30
3.0000000000093623
 70
     32
  0
VERTEX
  8
MY3DLAYER
10
142.27446163182725
20
51.65860337443034
30
3.0000000000093623
 70
     32
  0
VERTEX
  8
MY3DLAYER
10
141.76798162654254
20
51.448812487170734
30
3.0000000000093623
 70
     32
  0
VERTEX
  8
MY3DLAYER
10
141.2244616318272
20
51.37725672237791
30
3.0000000000093623
 70
     32
  0
VERTEX
  8
MY3DLAYER
10
140.68094163711194
20
51.448812487171
30
3.0000000000093623
 70
     32
  0
VERTEX
  8
MY3DLAYER
10
140.17446163182728
20
51.65860337443084
30
3.0000000000093623
 70
     32
  0
VERTEX
  8
MY3DLAYER
10
139.73953739133563
20
51.99233248188651
30
3.0000000000093623
 70
     32
  0
VERTEX
  8
MY3DLAYER
10
139.40580828388013
20
52.42725672237833
30
3.0000000000093623
 70
     32
  0
VERTEX
  8
MY3DLAYER
10
139.19601739662053
20
52.93373672766309
30
3.0000000000093623
 70
     32
  0
VERTEX
  8
MY3DLAYER
10
139.1244616318277
20
53.4772567223784
30
3.0000000000093623
 70
     32
  0
SEQEND
  0
POLYLINE
 8
Layer0
 66
     1
70
    8
 10
0.0
 20
 0.0
 30
0.0
  0
VERTEX
  8
MY3DLAYER
10
140.21023951421458
20
11.720572484528727
30
3.0000000000093623
 70
     32
  0
VERTEX
  8
MY3DLAYER
10
139.7901349578445
20
12.042930048404578
30
3.0000000000093623
 70
     32
  0
VERTEX
  8
MY3DLAYER
10
139.46777739396887
20
12.46303460477478
30
3.0000000000093623
 70
     32
  0
VERTEX
  8
MY3DLAYER
10
139.26513495784474
20
12.952256722378332
30
3.0000000000093623
 70
     32
  0
VERTEX
  8
MY3DLAYER
10
139.19601739661144
20
13.47725672237837
30
3.0000000000093623
 70
     32
  0
VERTEX
  8
MY3DLAYER
10
139.26513495784496
20
14.002256722378341
30
3.0000000000093623
 70
     32
  0
VERTEX
  8
MY3DLAYER
10
139.46777739396933
20
14.491478839981824
30
3.0000000000093623
 70
     32
  0
VERTEX
  8
MY3DLAYER
10
139.79013495784514
20
14.91158339635189
30
3.0000000000093623
 70
     32
  0
VERTEX
  8
MY3DLAYER
10
140.21023951421537
20
15.233940960227516
30
3.0000000000093623
 70
     32
  0
VERTEX
  8
MY3DLAYER
10
140.69946163181896
20
15.436583396351669
30
3.0000000000093623
 70
     32
  0
VERTEX
  8
MY3DLAYER
10
141.22446163181894
20
15.50570095758494
30
3.0000000000093623
 70
     32
  0
VERTEX
  8
MY3DLAYER
10
141.74946163181895
20
15.436583396351432
30
3.0000000000093623
 70
     32
  0
VERTEX
  8
MY3DLAYER
10
142.2386837494224
20
15.233940960227054
30
3.0000000000093623
 70
     32
  0
VERTEX
  8
MY3DLAYER
10
142.65878830579246
20
14.911583396351224
30
3.0000000000093623
 70
     32
  0
VERTEX
  8
MY3DLAYER
10
142.98114586966813
20
14.491478839981012
30
3.0000000000093623
 70
     32
  0
VERTEX
  8
MY3DLAYER
10
143.18378830579226
20
14.002256722377439
30
3.0000000000093623
 70
     32
  0
VERTEX
  8
MY3DLAYER
10
143.2529058670255
20
13.477256722377433
30
3.0000000000093623
 70
     32
  0
VERTEX
  8
MY3DLAYER
10
143.18378830579204
20
12.95225672237743
30
3.0000000000093623
 70
     32
  0
VERTEX
  8
MY3DLAYER
10
142.98114586966764
20
12.463034604773968
30
3.0000000000093623
 70
     32
  0
VERTEX
  8
MY3DLAYER
10
142.65878830579177
20
12.042930048403914
30
3.0000000000093623
 70
     32
  0
VERTEX
  8
MY3DLAYER
10
142.2386837494216
20
11.720572484528265
30
3.0000000000093623
 70
     32
  0
VERTEX
  8
MY3DLAYER
10
141.74946163181804
20
11.517930048404112
30
3.0000000000093623
 70
     32
  0
VERTEX
  8
MY3DLAYER
10
141.22446163181803
20
11.448812487170853
30
3.0000000000093623
 70
     32
  0
VERTEX
  8
MY3DLAYER
10
140.69946163181805
20
11.517930048404349
30
3.0000000000093623
 70
     32
  0
VERTEX
  8
MY3DLAYER
10
140.21023951421458
20
11.720572484528727
30
3.0000000000093623
 70
     32
  0
SEQEND
  0
POLYLINE
 8
Layer0
 66
     1
70
    8
 10
0.0
 20
 0.0
 30
0.0
  0
VERTEX
  8
MY3DLAYER
10
182.70938070028518
20
11.992337653901311
30
3.000000000009374
 70
     32
  0
VERTEX
  8
MY3DLAYER
10
182.2744579746443
20
11.658609708831866
30
3.000000000009374
 70
     32
  0
VERTEX
  8
MY3DLAYER
10
181.76797973344085
20
11.44881955227867
30
3.000000000009374
 70
     32
  0
VERTEX
  8
MY3DLAYER
10
181.224461631818
20
11.377264036716193
30
3.000000000009374
 70
     32
  0
VERTEX
  8
MY3DLAYER
10
180.68094353019518
20
11.448819552278918
30
3.000000000009374
 70
     32
  0
VERTEX
  8
MY3DLAYER
10
180.17446528899183
20
11.658609708832351
30
3.000000000009374
 70
     32
  0
VERTEX
  8
MY3DLAYER
10
179.7395425633511
20
11.992337653902
30
3.000000000009374
 70
     32
  0
VERTEX
  8
MY3DLAYER
10
179.40581461828168
20
12.427260379542854
30
3.000000000009374
 70
     32
  0
VERTEX
  8
MY3DLAYER
10
179.19602446172848
20
12.933738620746276
30
3.000000000009374
 70
     32
  0
VERTEX
  8
MY3DLAYER
10
179.124468946166
20
13.477256722369166
30
3.000000000009374
 70
     32
  0
VERTEX
  8
MY3DLAYER
10
179.19602446172874
20
14.020774823991987
30
3.000000000009374
 70
     32
  0
VERTEX
  8
MY3DLAYER
10
179.40581461828216
20
14.52725306519534
30
3.000000000009374
 70
     32
  0
VERTEX
  8
MY3DLAYER
10
179.73954256335182
20
14.962175790836039
30
3.000000000009374
 70
     32
  0
VERTEX
  8
MY3DLAYER
10
180.17446528899265
20
15.295903735905483
30
3.000000000009374
 70
     32
  0
VERTEX
  8
MY3DLAYER
10
180.6809435301961
20
15.505693892458668
30
3.000000000009374
 70
     32
  0
VERTEX
  8
MY3DLAYER
10
181.22446163181897
20
15.577249408021167
30
3.000000000009374
 70
     32
  0
VERTEX
  8
MY3DLAYER
10
181.7679797334418
20
15.505693892458421
30
3.000000000009374
 70
     32
  0
VERTEX
  8
MY3DLAYER
10
182.27445797464514
20
15.295903735904998
30
3.000000000009374
 70
     32
  0
VERTEX
  8
MY3DLAYER
10
182.70938070028583
20
14.96217579083535
30
3.000000000009374
 70
     32
  0
VERTEX
  8
MY3DLAYER
10
183.0431086453553
20
14.527253065194495
30
3.000000000009374
 70
     32
  0
VERTEX
  8
MY3DLAYER
10
183.2528988019085
20
14.02077482399105
30
3.000000000009374
 70
     32
  0
VERTEX
  8
MY3DLAYER
10
183.32445431747098
20
13.477256722368196
30
3.000000000009374
 70
     32
  0
VERTEX
  8
MY3DLAYER
10
183.25289880190823
20
12.93373862074534
30
3.000000000009374
 70
     32
  0
VERTEX
  8
MY3DLAYER
10
183.0431086453548
20
12.427260379542009
30
3.000000000009374
 70
     32
  0
VERTEX
  8
MY3DLAYER
10
182.70938070028518
20
11.992337653901311
30
3.000000000009374
 70
     32
  0
SEQEND
  0
POLYLINE
 8
Layer0
 66
     1
70
    8
 10
0.0
 20
 0.0
 30
0.0
  0
VERTEX
  8
MY3DLAYER
10
107.00000000001312
20
57.133469187750464
30
3.000000000009374
 70
     32
  0
VERTEX
  8
MY3DLAYER
10
107.37481591083402
20
59.980478683878104
30
3.000000000009374
 70
     32
  0
VERTEX
  8
MY3DLAYER
10
108.47372055838554
20
62.633469187750116
30
3.000000000009374
 70
     32
  0
VERTEX
  8
MY3DLAYER
10
110.22182540696285
20
64.91164378080174
30
3.000000000009374
 70
     32
  0
VERTEX
  8
MY3DLAYER
10
112.50000000001529
20
66.65974862937802
30
3.000000000009374
 70
     32
  0
VERTEX
  8
MY3DLAYER
10
115.15299050388784
20
67.75865327692833
30
3.000000000009374
 70
     32
  0
VERTEX
  8
MY3DLAYER
10
118.00000000001565
20
68.13346918774793
30
3.000000000009374
 70
     32
  0
VERTEX
  8
MY3DLAYER
10
120.84700949614327
20
67.75865327692702
30
3.000000000009374
 70
     32
  0
VERTEX
  8
MY3DLAYER
10
123.50000000001532
20
66.65974862937547
30
3.000000000009374
 70
     32
  0
VERTEX
  8
MY3DLAYER
10
125.77817459306692
20
64.91164378079816
30
3.000000000009374
 70
     32
  0
VERTEX
  8
MY3DLAYER
10
127.52627944164321
20
62.633469187745725
30
3.000000000009374
 70
     32
  0
VERTEX
  8
MY3DLAYER
10
128.6251840891935
20
59.98047868387321
30
3.000000000009374
 70
     32
  0
VERTEX
  8
MY3DLAYER
10
129.00000000001313
20
57.13346918774539
30
3.000000000009374
 70
     32
  0
VERTEX
  8
MY3DLAYER
10
128.6251840891922
20
54.28645969161775
30
3.000000000009374
 70
     32
  0
VERTEX
  8
MY3DLAYER
10
127.52627944164067
20
51.63346918774574
30
3.000000000009374
 70
     32
  0
VERTEX
  8
MY3DLAYER
10
125.77817459306333
20
49.35529459469411
30
3.000000000009374
 70
     32
  0
VERTEX
  8
MY3DLAYER
10
123.5000000000109
20
47.607189746117825
30
3.000000000009374
 70
     32
  0
VERTEX
  8
MY3DLAYER
10
120.8470094961384
20
46.50828509856751
30
3.000000000009374
 70
     32
  0
VERTEX
  8
MY3DLAYER
10
118.00000000001057
20
46.13346918774792
30
3.000000000009374
 70
     32
  0
VERTEX
  8
MY3DLAYER
10
115.15299050388292
20
46.50828509856883
30
3.000000000009374
 70
     32
  0
VERTEX
  8
MY3DLAYER
10
112.50000000001091
20
47.60718974612036
30
3.000000000009374
 70
     32
  0
VERTEX
  8
MY3DLAYER
10
110.2218254069593
20
49.35529459469769
30
3.000000000009374
 70
     32
  0
VERTEX
  8
MY3DLAYER
10
108.47372055838302
20
51.633469187750116
30
3.000000000009374
 70
     32
  0
VERTEX
  8
MY3DLAYER
10
107.37481591083271
20
54.28645969162263
30
3.000000000009374
 70
     32
  0
VERTEX
  8
MY3DLAYER
10
107.00000000001312
20
57.133469187750464
30
3.000000000009374
 70
     32
  0
SEQEND
  0
POLYLINE
 8
Layer0
 66
     1
70
    8
 10
0.0
 20
 0.0
 30
0.0
  0
VERTEX
  8
MY3DLAYER
10
246.59999999999476
20
13.633469187754097
30
3.000000000008679
 70
     32
  0
VERTEX
  8
MY3DLAYER
10
249.59999999999476
20
13.633469187755598
30
3.00000000000868
 70
     32
  0
VERTEX
  8
MY3DLAYER
10
250.12210476887495
20
13.66768974226062
30
3.0000000000086775
 70
     32
  0
VERTEX
  8
MY3DLAYER
10
250.63527618040476
20
13.769765882599843
30
3.000000000008671
 70
     32
  0
VERTEX
  8
MY3DLAYER
10
251.13073372945496
20
13.937951057711219
30
3.0000000000086593
 70
     32
  0
VERTEX
  8
MY3DLAYER
10
251.59999999999448
20
14.169367572618848
30
3.0000000000086438
 70
     32
  0
VERTEX
  8
MY3DLAYER
10
252.03504571602926
20
14.460055826591876
30
3.000000000008624
 70
     32
  0
VERTEX
  8
MY3DLAYER
10
252.42842712474038
20
14.805042063010836
30
3.000000000008601
 70
     32
  0
VERTEX
  8
MY3DLAYER
10
252.7734133611589
20
15.198423471722315
30
3.0000000000085745
 70
     32
  0
VERTEX
  8
MY3DLAYER
10
253.0641016151315
20
15.633469187757342
30
3.0000000000085456
 70
     32
  0
VERTEX
  8
MY3DLAYER
10
253.29551813003866
20
16.102735458297097
30
3.000000000008514
 70
     32
  0
VERTEX
  8
MY3DLAYER
10
253.46370330514955
20
16.59819300734746
30
3.0000000000084808
 70
     32
  0
VERTEX
  8
MY3DLAYER
10
253.56577944548823
20
17.111364418877393
30
3.0000000000084466
 70
     32
  0
VERTEX
  8
MY3DLAYER
10
253.59999999999278
20
17.63346918775762
30
3.000000000008412
 70
     32
  0
VERTEX
  8
MY3DLAYER
10
253.59999999999172
20
19.633469187757616
30
3.0000000000082783
 70
     32
  0
VERTEX
  8
MY3DLAYER
10
253.5657794454867
20
20.1555739566378
30
3.000000000008243
 70
     32
  0
VERTEX
  8
MY3DLAYER
10
253.46370330514748
20
20.668745368167627
30
3.000000000008209
 70
     32
  0
VERTEX
  8
MY3DLAYER
10
253.29551813003613
20
21.16420291721782
30
3.000000000008176
 70
     32
  0
VERTEX
  8
MY3DLAYER
10
253.06410161512846
20
21.633469187757342
30
3.000000000008145
 70
     32
  0
VERTEX
  8
MY3DLAYER
10
252.7734133611555
20
22.068514903792078
30
3.000000000008116
 70
     32
  0
VERTEX
  8
MY3DLAYER
10
252.42842712473654
20
22.461896312503217
30
3.0000000000080895
 70
     32
  0
VERTEX
  8
MY3DLAYER
10
252.03504571602502
20
22.80688254892177
30
3.000000000008067
 70
     32
  0
VERTEX
  8
MY3DLAYER
10
251.59999999999002
20
23.09757080289437
30
3.000000000008048
 70
     32
  0
VERTEX
  8
MY3DLAYER
10
251.13073372945024
20
23.328987317801523
30
3.0000000000080322
 70
     32
  0
VERTEX
  8
MY3DLAYER
10
250.6352761803999
20
23.497172492912398
30
3.000000000008021
 70
     32
  0
VERTEX
  8
MY3DLAYER
10
250.12210476886995
20
23.599248633251104
30
3.0000000000080145
 70
     32
  0
VERTEX
  8
MY3DLAYER
10
249.59999999998976
20
23.633469187755598
30
3.0000000000080123
 70
     32
  0
VERTEX
  8
MY3DLAYER
10
246.59999999998976
20
23.633469187754095
30
3.000000000008011
 70
     32
  0
VERTEX
  8
MY3DLAYER
10
246.5999999999847
20
33.633469187754095
30
3.000000000007344
 70
     32
  0
VERTEX
  8
MY3DLAYER
10
249.5999999999847
20
33.6334691877556
30
3.000000000007344
 70
     32
  0
VERTEX
  8
MY3DLAYER
10
249.5999999999797
20
43.6334691877556
30
3.000000000006676
 70
     32
  0
VERTEX
  8
MY3DLAYER
10
246.5999999999797
20
43.6334691877541
30
3.000000000006676
 70
     32
  0
VERTEX
  8
MY3DLAYER
10
246.59999999997464
20
53.6334691877541
30
3.000000000006009
 70
     32
  0
VERTEX
  8
MY3DLAYER
10
249.59999999997464
20
53.6334691877556
30
3.0000000000060107
 70
     32
  0
VERTEX
  8
MY3DLAYER
10
250.12210476885483
20
53.66768974226061
30
3.0000000000060076
 70
     32
  0
VERTEX
  8
MY3DLAYER
10
250.6352761803847
20
53.76976588259985
30
3.000000000006001
 70
     32
  0
VERTEX
  8
MY3DLAYER
10
251.13073372943484
20
53.937951057711224
30
3.0000000000059894
 70
     32
  0
VERTEX
  8
MY3DLAYER
10
251.59999999997441
20
54.169367572618846
30
3.000000000005974
 70
     32
  0
VERTEX
  8
MY3DLAYER
10
252.03504571600914
20
54.46005582659188
30
3.0000000000059543
 70
     32
  0
VERTEX
  8
MY3DLAYER
10
252.42842712472026
20
54.80504206301083
30
3.0000000000059313
 70
     32
  0
VERTEX
  8
MY3DLAYER
10
252.77341336113878
20
55.19842347172231
30
3.0000000000059046
 70
     32
  0
VERTEX
  8
MY3DLAYER
10
253.0641016151114
20
55.63346918775735
30
3.0000000000058757
 70
     32
  0
VERTEX
  8
MY3DLAYER
10
253.2955181300186
20
56.102735458297104
30
3.000000000005844
 70
     32
  0
VERTEX
  8
MY3DLAYER
10
253.46370330512943
20
56.598193007347454
30
3.000000000005811
 70
     32
  0
VERTEX
  8
MY3DLAYER
10
253.56577944546817
20
57.111364418877386
30
3.0000000000057767
 70
     32
  0
VERTEX
  8
MY3DLAYER
10
253.59999999997265
20
57.63346918775761
30
3.000000000005742
 70
     32
  0
VERTEX
  8
MY3DLAYER
10
253.59999999997166
20
59.63346918775761
30
3.0000000000056084
 70
     32
  0
VERTEX
  8
MY3DLAYER
10
253.56577944546663
20
60.1555739566378
30
3.0000000000055733
 70
     32
  0
VERTEX
  8
MY3DLAYER
10
253.4637033051274
20
60.668745368167635
30
3.000000000005539
 70
     32
  0
VERTEX
  8
MY3DLAYER
10
253.295518130016
20
61.164202917217814
30
3.0000000000055063
 70
     32
  0
VERTEX
  8
MY3DLAYER
10
253.0641016151084
20
61.63346918775735
30
3.000000000005475
 70
     32
  0
VERTEX
  8
MY3DLAYER
10
252.77341336113537
20
62.068514903792085
30
3.0000000000054463
 70
     32
  0
VERTEX
  8
MY3DLAYER
10
252.42842712471642
20
62.46189631250322
30
3.0000000000054197
 70
     32
  0
VERTEX
  8
MY3DLAYER
10
252.03504571600493
20
62.80688254892176
30
3.000000000005397
 70
     32
  0
VERTEX
  8
MY3DLAYER
10
251.5999999999699
20
63.09757080289437
30
3.000000000005378
 70
     32
  0
VERTEX
  8
MY3DLAYER
10
251.13073372943015
20
63.32898731780152
30
3.0000000000053624
 70
     32
  0
VERTEX
  8
MY3DLAYER
10
250.63527618037978
20
63.4971724929124
30
3.0000000000053513
 70
     32
  0
VERTEX
  8
MY3DLAYER
10
250.12210476884988
20
63.5992486332511
30
3.0000000000053446
 70
     32
  0
VERTEX
  8
MY3DLAYER
10
249.59999999996964
20
63.633469187755594
30
3.0000000000053424
 70
     32
  0
VERTEX
  8
MY3DLAYER
10
246.59999999996964
20
63.633469187754095
30
3.000000000005341
 70
     32
  0
VERTEX
  8
MY3DLAYER
10
246.59999999996435
20
74.13346918775409
30
3.0000000000046434
 70
     32
  0
VERTEX
  8
MY3DLAYER
10
230.34999999996435
20
74.13346918774592
30
3.0000000000046527
 70
     32
  0
VERTEX
  8
MY3DLAYER
10
230.34999999996288
20
77.13346918774592
30
3.0000000000044524
 70
     32
  0
VERTEX
  8
MY3DLAYER
10
215.29999999996286
20
77.13346918773836
30
3.000000000004464
 70
     32
  0
VERTEX
  8
MY3DLAYER
10
215.29999999996434
20
74.13346918773836
30
3.000000000004664
 70
     32
  0
VERTEX
  8
MY3DLAYER
10
198.99999999996436
20
74.13346918773016
30
3.0000000000046434
 70
     32
  0
VERTEX
  8
MY3DLAYER
10
198.99999999996962
20
63.633469187730114
30
3.0000000000053437
 70
     32
  0
VERTEX
  8
MY3DLAYER
10
195.99999999996965
20
63.6334691877286
30
3.0000000000053437
 70
     32
  0
VERTEX
  8
MY3DLAYER
10
195.99999999997465
20
53.633469187728714
30
3.00000000000601
 70
     32
  0
VERTEX
  8
MY3DLAYER
10
198.99999999997465
20
53.63346918773022
30
3.00000000000601
 70
     32
  0
VERTEX
  8
MY3DLAYER
10
198.99999999997968
20
43.63346918773033
30
3.0000000000066804
 70
     32
  0
VERTEX
  8
MY3DLAYER
10
195.99999999997968
20
43.63346918772882
30
3.0000000000066804
 70
     32
  0
VERTEX
  8
MY3DLAYER
10
195.9999999999847
20
33.63346918772875
30
3.0000000000073483
 70
     32
  0
VERTEX
  8
MY3DLAYER
10
198.9999999999847
20
33.633469187730256
30
3.0000000000073483
 70
     32
  0
VERTEX
  8
MY3DLAYER
10
198.99999999998974
20
23.633469187730363
30
3.0000000000080136
 70
     32
  0
VERTEX
  8
MY3DLAYER
10
195.99999999998977
20
23.633469187728856
30
3.0000000000080136
 70
     32
  0
VERTEX
  8
MY3DLAYER
10
195.9999999999948
20
13.633469187728785
30
3.0000000000086837
 70
     32
  0
VERTEX
  8
MY3DLAYER
10
198.99999999999477
20
13.633469187730297
30
3.0000000000086837
 70
     32
  0
VERTEX
  8
MY3DLAYER
10
199.00000000000003
20
3.1334691877301806
30
3.000000000009385
 70
     32
  0
VERTEX
  8
MY3DLAYER
10
215.30000000000004
20
3.1334691877383696
30
3.00000000000939
 70
     32
  0
VERTEX
  8
MY3DLAYER
10
215.30000000000157
20
0.13346918773837516
30
3.00000000000959
 70
     32
  0
VERTEX
  8
MY3DLAYER
10
230.35000000000153
20
0.13346918774594396
30
3.0000000000095817
 70
     32
  0
VERTEX
  8
MY3DLAYER
10
230.35000000000005
20
3.1334691877459386
30
3.0000000000093814
 70
     32
  0
VERTEX
  8
MY3DLAYER
10
246.60000000000005
20
3.133469187754105
30
3.0000000000093863
 70
     32
  0
VERTEX
  8
MY3DLAYER
10
246.59999999999476
20
13.633469187754097
30
3.000000000008679
 70
     32
  0
SEQEND
  0
POLYLINE
 8
Layer0
 66
     1
70
    8
 10
0.0
 20
 0.0
 30
0.0
  0
VERTEX
  8
MY3DLAYER
10
-2.255973186038318e-14
20
-2.255973186038318e-14
30
3.0
 70
     32
  0
VERTEX
  8
MY3DLAYER
10
10.99999999999998
20
1.4776624368550982e-12
30
3.0
 70
     32
  0
VERTEX
  8
MY3DLAYER
10
10.999999999999574
20
3.000000000001472
30
3.0
 70
     32
  0
VERTEX
  8
MY3DLAYER
10
25.99999999999957
20
3.000000000003525
30
3.0
 70
     32
  0
VERTEX
  8
MY3DLAYER
10
25.999999999999975
20
3.5305980361499677e-12
30
3.0
 70
     32
  0
VERTEX
  8
MY3DLAYER
10
40.99999999999997
20
5.572253769514645e-12
30
3.0
 70
     32
  0
VERTEX
  8
MY3DLAYER
10
40.99999999999957
20
3.0000000000055667
30
3.0
 70
     32
  0
VERTEX
  8
MY3DLAYER
10
55.99999999999956
20
3.0000000000076086
30
3.0
 70
     32
  0
VERTEX
  8
MY3DLAYER
10
55.99999999999998
20
7.613909502879324e-12
30
3.0
 70
     32
  0
VERTEX
  8
MY3DLAYER
10
70.99999999999999
20
9.666845102174193e-12
30
3.0000000000000004
 70
     32
  0
VERTEX
  8
MY3DLAYER
10
70.99999999999957
20
3.000000000009661
30
3.0
 70
     32
  0
VERTEX
  8
MY3DLAYER
10
85.99999999999957
20
3.000000000011703
30
3.0
 70
     32
  0
VERTEX
  8
MY3DLAYER
10
85.99999999999997
20
1.170850083553887e-11
30
3.0
 70
     32
  0
VERTEX
  8
MY3DLAYER
10
96.99999999999997
20
1.3208723004254351e-11
30
3.0
 70
     32
  0
VERTEX
  8
MY3DLAYER
10
96.99999999999812
20
13.500000000013184
30
3.0
 70
     32
  0
VERTEX
  8
MY3DLAYER
10
93.99999999999814
20
13.500000000012777
30
3.0
 70
     32
  0
VERTEX
  8
MY3DLAYER
10
93.99999999999677
20
23.500000000012783
30
3.0
 70
     32
  0
VERTEX
  8
MY3DLAYER
10
96.99999999999676
20
23.500000000013188
30
3.0
 70
     32
  0
VERTEX
  8
MY3DLAYER
10
96.9999999999954
20
33.50000000001319
30
3.0
 70
     32
  0
VERTEX
  8
MY3DLAYER
10
93.99999999999541
20
33.500000000012776
30
3.0
 70
     32
  0
VERTEX
  8
MY3DLAYER
10
93.99999999999405
20
43.50000000001278
30
3.0
 70
     32
  0
VERTEX
  8
MY3DLAYER
10
96.99999999999405
20
43.50000000001319
30
3.0
 70
     32
  0
VERTEX
  8
MY3DLAYER
10
96.99999999999268
20
53.50000000001319
30
3.0
 70
     32
  0
VERTEX
  8
MY3DLAYER
10
93.99999999999268
20
53.50000000001278
30
3.0
 70
     32
  0
VERTEX
  8
MY3DLAYER
10
93.99999999999132
20
63.500000000012776
30
3.0
 70
     32
  0
VERTEX
  8
MY3DLAYER
10
96.99999999999132
20
63.500000000013195
30
3.0
 70
     32
  0
VERTEX
  8
MY3DLAYER
10
96.99999999998948
20
77.00000000001317
30
3.0
 70
     32
  0
VERTEX
  8
MY3DLAYER
10
85.99999999998948
20
77.00000000001168
30
3.0
 70
     32
  0
VERTEX
  8
MY3DLAYER
10
85.9999999999899
20
74.00000000001168
30
3.0
 70
     32
  0
VERTEX
  8
MY3DLAYER
10
70.9999999999899
20
74.00000000000963
30
3.0
 70
     32
  0
VERTEX
  8
MY3DLAYER
10
70.99999999998948
20
77.00000000000963
30
3.0
 70
     32
  0
VERTEX
  8
MY3DLAYER
10
55.9999999999895
20
77.00000000000759
30
3.0
 70
     32
  0
VERTEX
  8
MY3DLAYER
10
55.9999999999899
20
74.00000000000759
30
3.0
 70
     32
  0
VERTEX
  8
MY3DLAYER
10
40.999999999989875
20
74.00000000000554
30
3.0
 70
     32
  0
VERTEX
  8
MY3DLAYER
10
40.99999999998947
20
77.00000000000554
30
3.0
 70
     32
  0
VERTEX
  8
MY3DLAYER
10
25.999999999989473
20
77.0000000000035
30
3.0000000000000004
 70
     32
  0
VERTEX
  8
MY3DLAYER
10
25.99999999998988
20
74.0000000000035
30
2.9999999999999982
 70
     32
  0
VERTEX
  8
MY3DLAYER
10
10.999999999989884
20
74.00000000000145
30
2.9999999999999982
 70
     32
  0
VERTEX
  8
MY3DLAYER
10
10.999999999989479
20
77.00000000000145
30
2.9999999999999982
 70
     32
  0
VERTEX
  8
MY3DLAYER
10
-1.0524114912868753e-11
20
76.99999999999994
30
3.0
 70
     32
  0
VERTEX
  8
MY3DLAYER
10
-8.685496766247525e-12
20
63.499999999999964
30
3.0
 70
     32
  0
VERTEX
  8
MY3DLAYER
10
2.999999999991309
20
63.50000000000037
30
3.0
 70
     32
  0
VERTEX
  8
MY3DLAYER
10
2.999999999992674
20
53.50000000000038
30
3.0
 70
     32
  0
VERTEX
  8
MY3DLAYER
10
-7.320632988694342e-12
20
53.49999999999997
30
3.0
 70
     32
  0
VERTEX
  8
MY3DLAYER
10
-5.955769211141159e-12
20
43.499999999999964
30
3.0
 70
     32
  0
VERTEX
  8
MY3DLAYER
10
2.9999999999940385
20
43.50000000000037
30
3.0
 70
     32
  0
VERTEX
  8
MY3DLAYER
10
2.9999999999953357
20
33.951708347137355
30
3.0
 70
     32
  0
VERTEX
  8
MY3DLAYER
10
-4.658584629169126e-12
20
33.95170834713695
30
3.0
 70
     32
  0
VERTEX
  8
MY3DLAYER
10
-3.2260416560347947e-12
20
23.499999999999957
30
3.0
 70
     32
  0
VERTEX
  8
MY3DLAYER
10
2.9999999999967684
20
23.500000000000373
30
3.0
 70
     32
  0
VERTEX
  8
MY3DLAYER
10
2.9999999999981335
20
13.50000000000037
30
3.0
 70
     32
  0
VERTEX
  8
MY3DLAYER
10
-1.8611778784816124e-12
20
13.499999999999952
30
3.0
 70
     32
  0
VERTEX
  8
MY3DLAYER
10
-2.255973186038318e-14
20
-2.255973186038318e-14
30
3.0
 70
     32
  0
SEQEND
  0
POLYLINE
 8
Layer0
 66
     1
70
    8
 10
0.0
 20
 0.0
 30
0.0
  0
VERTEX
  8
MY3DLAYER
10
5.954518677936514
20
7.085889527836744
30
2.9999999999999947
 70
     32
  0
VERTEX
  8
MY3DLAYER
10
5.899999999998963
20
7.500000000000776
30
2.9999999999999947
 70
     32
  0
VERTEX
  8
MY3DLAYER
10
5.954518677936401
20
7.914110472164808
30
2.9999999999999947
 70
     32
  0
VERTEX
  8
MY3DLAYER
10
6.1143593539437395
20
8.300000000000797
30
2.9999999999999947
 70
     32
  0
VERTEX
  8
MY3DLAYER
10
6.368629150100332
20
8.631370849899302
30
2.9999999999999947
 70
     32
  0
VERTEX
  8
MY3DLAYER
10
6.699999999998769
20
8.885640646055984
30
2.9999999999999947
 70
     32
  0
VERTEX
  8
MY3DLAYER
10
7.085889527834714
20
9.045481322063436
30
2.9999999999999947
 70
     32
  0
VERTEX
  8
MY3DLAYER
10
7.499999999998746
20
9.100000000000987
30
2.9999999999999947
 70
     32
  0
VERTEX
  8
MY3DLAYER
10
7.914110472162777
20
9.045481322063548
30
2.9999999999999947
 70
     32
  0
VERTEX
  8
MY3DLAYER
10
8.299999999998766
20
8.88564064605621
30
2.9999999999999947
 70
     32
  0
VERTEX
  8
MY3DLAYER
10
8.631370849897271
20
8.631370849899618
30
2.9999999999999947
 70
     32
  0
VERTEX
  8
MY3DLAYER
10
8.88564064605393
20
8.30000000000118
30
2.9999999999999947
 70
     32
  0
VERTEX
  8
MY3DLAYER
10
9.045481322061406
20
7.914110472165237
30
2.9999999999999947
 70
     32
  0
VERTEX
  8
MY3DLAYER
10
9.099999999998957
20
7.500000000001204
30
2.9999999999999947
 70
     32
  0
VERTEX
  8
MY3DLAYER
10
9.045481322061518
20
7.085889527837173
30
2.9999999999999947
 70
     32
  0
VERTEX
  8
MY3DLAYER
10
8.885640646054156
20
6.700000000001183
30
2.9999999999999947
 70
     32
  0
VERTEX
  8
MY3DLAYER
10
8.631370849897587
20
6.368629150102678
30
2.9999999999999947
 70
     32
  0
VERTEX
  8
MY3DLAYER
10
8.29999999999915
20
6.114359353946019
30
2.9999999999999947
 70
     32
  0
VERTEX
  8
MY3DLAYER
10
7.914110472163206
20
5.954518677938545
30
2.9999999999999947
 70
     32
  0
VERTEX
  8
MY3DLAYER
10
7.499999999999174
20
5.900000000000993
30
2.9999999999999947
 70
     32
  0
VERTEX
  8
MY3DLAYER
10
7.085889527835143
20
5.954518677938432
30
2.9999999999999947
 70
     32
  0
VERTEX
  8
MY3DLAYER
10
6.699999999999153
20
6.114359353945793
30
2.9999999999999947
 70
     32
  0
VERTEX
  8
MY3DLAYER
10
6.368629150100648
20
6.368629150102362
30
2.9999999999999947
 70
     32
  0
VERTEX
  8
MY3DLAYER
10
6.114359353943965
20
6.7000000000007995
30
2.9999999999999947
 70
     32
  0
VERTEX
  8
MY3DLAYER
10
5.954518677936514
20
7.085889527836744
30
2.9999999999999947
 70
     32
  0
SEQEND
  0
POLYLINE
 8
Layer0
 66
     1
70
    8
 10
0.0
 20
 0.0
 30
0.0
  0
VERTEX
  8
MY3DLAYER
10
7.499999999990286
20
71.10000000000099
30
2.9999999999999947
 70
     32
  0
VERTEX
  8
MY3DLAYER
10
7.914110472154329
20
71.04548132206357
30
2.9999999999999947
 70
     32
  0
VERTEX
  8
MY3DLAYER
10
8.299999999990318
20
70.8856406460562
30
2.9999999999999947
 70
     32
  0
VERTEX
  8
MY3DLAYER
10
8.631370849888823
20
70.63137084989961
30
2.9999999999999947
 70
     32
  0
VERTEX
  8
MY3DLAYER
10
8.885640646045482
20
70.30000000000118
30
2.9999999999999947
 70
     32
  0
VERTEX
  8
MY3DLAYER
10
9.045481322052957
20
69.91411047216523
30
2.9999999999999947
 70
     32
  0
VERTEX
  8
MY3DLAYER
10
9.099999999990509
20
69.50000000000121
30
2.9999999999999947
 70
     32
  0
VERTEX
  8
MY3DLAYER
10
9.04548132205307
20
69.08588952783717
30
2.9999999999999947
 70
     32
  0
VERTEX
  8
MY3DLAYER
10
8.885640646045697
20
68.70000000000118
30
2.9999999999999947
 70
     32
  0
VERTEX
  8
MY3DLAYER
10
8.631370849889128
20
68.36862915010268
30
2.9999999999999947
 70
     32
  0
VERTEX
  8
MY3DLAYER
10
8.29999999999069
20
68.114359353946
30
2.9999999999999947
 70
     32
  0
VERTEX
  8
MY3DLAYER
10
7.914110472154746
20
67.95451867793854
30
2.9999999999999947
 70
     32
  0
VERTEX
  8
MY3DLAYER
10
7.499999999990726
20
67.90000000000099
30
2.9999999999999947
 70
     32
  0
VERTEX
  8
MY3DLAYER
10
7.085889527826683
20
67.95451867793844
30
2.9999999999999947
 70
     32
  0
VERTEX
  8
MY3DLAYER
10
6.699999999990693
20
68.11435935394579
30
2.9999999999999947
 70
     32
  0
VERTEX
  8
MY3DLAYER
10
6.368629150092188
20
68.36862915010236
30
2.9999999999999947
 70
     32
  0
VERTEX
  8
MY3DLAYER
10
6.114359353935505
20
68.7000000000008
30
2.9999999999999947
 70
     32
  0
VERTEX
  8
MY3DLAYER
10
5.954518677928066
20
69.08588952783674
30
2.9999999999999947
 70
     32
  0
VERTEX
  8
MY3DLAYER
10
5.899999999990514
20
69.50000000000078
30
2.9999999999999947
 70
     32
  0
VERTEX
  8
MY3DLAYER
10
5.954518677927953
20
69.91411047216482
30
2.9999999999999947
 70
     32
  0
VERTEX
  8
MY3DLAYER
10
6.114359353935291
20
70.30000000000081
30
2.9999999999999947
 70
     32
  0
VERTEX
  8
MY3DLAYER
10
6.368629150091883
20
70.63137084989931
30
2.9999999999999947
 70
     32
  0
VERTEX
  8
MY3DLAYER
10
6.699999999990321
20
70.88564064605599
30
2.9999999999999947
 70
     32
  0
VERTEX
  8
MY3DLAYER
10
7.085889527826265
20
71.04548132206345
30
2.9999999999999947
 70
     32
  0
VERTEX
  8
MY3DLAYER
10
7.499999999990286
20
71.10000000000099
30
2.9999999999999947
 70
     32
  0
SEQEND
  0
POLYLINE
 8
Layer0
 66
     1
70
    8
 10
0.0
 20
 0.0
 30
0.0
  0
VERTEX
  8
MY3DLAYER
10
90.88564064605417
20
6.700000000012362
30
2.9999999999999947
 70
     32
  0
VERTEX
  8
MY3DLAYER
10
90.63137084989758
20
6.368629150113857
30
2.9999999999999947
 70
     32
  0
VERTEX
  8
MY3DLAYER
10
90.29999999999914
20
6.114359353957174
30
2.9999999999999947
 70
     32
  0
VERTEX
  8
MY3DLAYER
10
89.9141104721632
20
5.954518677949723
30
2.9999999999999947
 70
     32
  0
VERTEX
  8
MY3DLAYER
10
89.49999999999918
20
5.900000000012171
30
2.9999999999999947
 70
     32
  0
VERTEX
  8
MY3DLAYER
10
89.08588952783512
20
5.95451867794961
30
2.9999999999999947
 70
     32
  0
VERTEX
  8
MY3DLAYER
10
88.69999999999915
20
6.11435935395696
30
2.9999999999999947
 70
     32
  0
VERTEX
  8
MY3DLAYER
10
88.36862915010063
20
6.368629150113552
30
2.9999999999999947
 70
     32
  0
VERTEX
  8
MY3DLAYER
10
88.11435935394397
20
6.70000000001199
30
2.9999999999999947
 70
     32
  0
VERTEX
  8
MY3DLAYER
10
87.9545186779365
20
7.085889527847933
30
2.9999999999999947
 70
     32
  0
VERTEX
  8
MY3DLAYER
10
87.89999999999895
20
7.500000000011954
30
2.9999999999999947
 70
     32
  0
VERTEX
  8
MY3DLAYER
10
87.95451867793639
20
7.914110472175998
30
2.9999999999999947
 70
     32
  0
VERTEX
  8
MY3DLAYER
10
88.11435935394374
20
8.300000000011986
30
2.9999999999999947
 70
     32
  0
VERTEX
  8
MY3DLAYER
10
88.36862915010033
20
8.631370849910514
30
2.9999999999999947
 70
     32
  0
VERTEX
  8
MY3DLAYER
10
88.69999999999877
20
8.885640646067174
30
2.9999999999999947
 70
     32
  0
VERTEX
  8
MY3DLAYER
10
89.08588952783471
20
9.045481322074636
30
2.9999999999999947
 70
     32
  0
VERTEX
  8
MY3DLAYER
10
89.49999999999874
20
9.100000000012166
30
2.9999999999999947
 70
     32
  0
VERTEX
  8
MY3DLAYER
10
89.91411047216279
20
9.04548132207475
30
2.9999999999999947
 70
     32
  0
VERTEX
  8
MY3DLAYER
10
90.29999999999876
20
8.885640646067388
30
2.9999999999999947
 70
     32
  0
VERTEX
  8
MY3DLAYER
10
90.63137084989728
20
8.631370849910796
30
2.9999999999999947
 70
     32
  0
VERTEX
  8
MY3DLAYER
10
90.88564064605396
20
8.300000000012359
30
2.9999999999999947
 70
     32
  0
VERTEX
  8
MY3DLAYER
10
91.04548132206142
20
7.914110472176414
30
2.9999999999999947
 70
     32
  0
VERTEX
  8
MY3DLAYER
10
91.09999999999896
20
7.5000000000123945
30
2.9999999999999947
 70
     32
  0
VERTEX
  8
MY3DLAYER
10
91.04548132206152
20
7.085889527848351
30
2.9999999999999947
 70
     32
  0
VERTEX
  8
MY3DLAYER
10
90.88564064605417
20
6.700000000012362
30
2.9999999999999947
 70
     32
  0
SEQEND
  0
POLYLINE
 8
Layer0
 66
     1
70
    8
 10
0.0
 20
 0.0
 30
0.0
  0
VERTEX
  8
MY3DLAYER
10
91.05092801002726
20
69.10677956859564
30
2.9999999999999947
 70
     32
  0
VERTEX
  8
MY3DLAYER
10
90.89630848302609
20
68.71876852330196
30
2.9999999999999947
 70
     32
  0
VERTEX
  8
MY3DLAYER
10
90.64653284041492
20
68.3839971121
30
2.9999999999999947
 70
     32
  0
VERTEX
  8
MY3DLAYER
10
90.31862287946393
20
68.1252794534273
30
2.9999999999999947
 70
     32
  0
VERTEX
  8
MY3DLAYER
10
89.9349251221151
20
67.96024672817123
30
2.9999999999999947
 70
     32
  0
VERTEX
  8
MY3DLAYER
10
89.52158793644122
20
67.90014564382852
30
2.9999999999999947
 70
     32
  0
VERTEX
  8
MY3DLAYER
10
89.10677956857397
20
67.94907198997541
30
2.9999999999999947
 70
     32
  0
VERTEX
  8
MY3DLAYER
10
88.71876852328027
20
68.10369151697658
30
2.9999999999999947
 70
     32
  0
VERTEX
  8
MY3DLAYER
10
88.38399711207833
20
68.35346715958775
30
2.9999999999999947
 70
     32
  0
VERTEX
  8
MY3DLAYER
10
88.12527945340561
20
68.68137712053876
30
2.9999999999999947
 70
     32
  0
VERTEX
  8
MY3DLAYER
10
87.96024672814956
20
69.06507487788758
30
2.9999999999999947
 70
     32
  0
VERTEX
  8
MY3DLAYER
10
87.90014564380685
20
69.47841206356146
30
2.9999999999999947
 70
     32
  0
VERTEX
  8
MY3DLAYER
10
87.94907198995374
20
69.8932204314287
30
2.9999999999999947
 70
     32
  0
VERTEX
  8
MY3DLAYER
10
88.10369151695491
20
70.2812314767224
30
2.9999999999999947
 70
     32
  0
VERTEX
  8
MY3DLAYER
10
88.35346715956608
20
70.61600288792434
30
2.9999999999999947
 70
     32
  0
VERTEX
  8
MY3DLAYER
10
88.68137712051707
20
70.87472054659706
30
2.9999999999999947
 70
     32
  0
VERTEX
  8
MY3DLAYER
10
89.06507487786591
20
71.03975327185313
30
2.9999999999999947
 70
     32
  0
VERTEX
  8
MY3DLAYER
10
89.47841206353979
20
71.09985435619582
30
2.9999999999999947
 70
     32
  0
VERTEX
  8
MY3DLAYER
10
89.89322043140703
20
71.05092801004893
30
2.9999999999999947
 70
     32
  0
VERTEX
  8
MY3DLAYER
10
90.28123147670073
20
70.89630848304776
30
2.9999999999999947
 70
     32
  0
VERTEX
  8
MY3DLAYER
10
90.61600288790267
20
70.64653284043659
30
2.9999999999999947
 70
     32
  0
VERTEX
  8
MY3DLAYER
10
90.87472054657539
20
70.3186228794856
30
2.9999999999999947
 70
     32
  0
VERTEX
  8
MY3DLAYER
10
91.03975327183146
20
69.93492512213678
30
2.9999999999999947
 70
     32
  0
VERTEX
  8
MY3DLAYER
10
91.09985435617415
20
69.5215879364629
30
2.9999999999999947
 70
     32
  0
VERTEX
  8
MY3DLAYER
10
91.05092801002726
20
69.10677956859564
30
2.9999999999999947
 70
     32
  0
SEQEND
  0
POLYLINE
 8
Layer0
 66
     1
70
    8
 10
0.0
 20
 0.0
 30
0.0
  0
VERTEX
  8
MY3DLAYER
10
195.0000000000027
20
128.73346918777563
30
2.9999999999742273
 70
     32
  0
VERTEX
  8
MY3DLAYER
10
184.00000000000264
20
128.73346918777233
30
2.9999999999787255
 70
     32
  0
VERTEX
  8
MY3DLAYER
10
184.00000000000173
20
131.73346918777233
30
2.9999999999787255
 70
     32
  0
VERTEX
  8
MY3DLAYER
10
169.00000000000176
20
131.73346918776787
30
2.9999999999848583
 70
     32
  0
VERTEX
  8
MY3DLAYER
10
169.00000000000267
20
128.73346918776787
30
2.9999999999848583
 70
     32
  0
VERTEX
  8
MY3DLAYER
10
154.00000000000264
20
128.7334691877634
30
2.999999999990991
 70
     32
  0
VERTEX
  8
MY3DLAYER
10
154.00000000000176
20
131.73346918776338
30
2.999999999990991
 70
     32
  0
VERTEX
  8
MY3DLAYER
10
139.00000000000182
20
131.7334691877589
30
2.9999999999971214
 70
     32
  0
VERTEX
  8
MY3DLAYER
10
139.00000000000273
20
128.73346918775894
30
2.9999999999971214
 70
     32
  0
VERTEX
  8
MY3DLAYER
10
124.00000000000276
20
128.73346918775445
30
3.0000000000032605
 70
     32
  0
VERTEX
  8
MY3DLAYER
10
124.00000000000188
20
131.73346918775442
30
3.0000000000032605
 70
     32
  0
VERTEX
  8
MY3DLAYER
10
109.00000000000185
20
131.73346918774996
30
3.0000000000093947
 70
     32
  0
VERTEX
  8
MY3DLAYER
10
109.00000000000273
20
128.73346918775
30
3.0000000000093947
 70
     32
  0
VERTEX
  8
MY3DLAYER
10
98.0000000000027
20
128.7334691877467
30
3.0000000000138827
 70
     32
  0
VERTEX
  8
MY3DLAYER
10
98.00000000000753
20
112.43346918774671
30
3.000000000013883
 70
     32
  0
VERTEX
  8
MY3DLAYER
10
101.00000000000755
20
112.43346918774759
30
3.000000000012658
 70
     32
  0
VERTEX
  8
MY3DLAYER
10
101.00000000001204
20
97.38346918774761
30
3.000000000012658
 70
     32
  0
VERTEX
  8
MY3DLAYER
10
98.00000000001202
20
97.3834691877467
30
3.000000000013883
 70
     32
  0
VERTEX
  8
MY3DLAYER
10
98.00000000001688
20
81.13346918774671
30
3.0000000000138827
 70
     32
  0
VERTEX
  8
MY3DLAYER
10
109.00000000001688
20
81.13346918774998
30
3.000000000009385
 70
     32
  0
VERTEX
  8
MY3DLAYER
10
109.00000000001778
20
78.13346918774998
30
3.000000000009385
 70
     32
  0
VERTEX
  8
MY3DLAYER
10
124.00000000001778
20
78.13346918775446
30
3.000000000003251
 70
     32
  0
VERTEX
  8
MY3DLAYER
10
124.00000000001687
20
81.13346918775446
30
3.000000000003251
 70
     32
  0
VERTEX
  8
MY3DLAYER
10
139.00000000001685
20
81.13346918775892
30
2.9999999999971165
 70
     32
  0
VERTEX
  8
MY3DLAYER
10
139.00000000001776
20
78.13346918775892
30
2.9999999999971165
 70
     32
  0
VERTEX
  8
MY3DLAYER
10
154.00000000001776
20
78.1334691877634
30
2.9999999999909828
 70
     32
  0
VERTEX
  8
MY3DLAYER
10
154.00000000001688
20
81.1334691877634
30
2.9999999999909828
 70
     32
  0
VERTEX
  8
MY3DLAYER
10
169.00000000001688
20
81.13346918776786
30
2.999999999984846
 70
     32
  0
VERTEX
  8
MY3DLAYER
10
169.0000000000178
20
78.13346918776787
30
2.9999999999848463
 70
     32
  0
VERTEX
  8
MY3DLAYER
10
184.0000000000178
20
78.13346918777235
30
2.999999999978713
 70
     32
  0
VERTEX
  8
MY3DLAYER
10
184.0000000000169
20
81.13346918777233
30
2.9999999999787126
 70
     32
  0
VERTEX
  8
MY3DLAYER
10
195.00000000001688
20
81.1334691877756
30
2.999999999974219
 70
     32
  0
VERTEX
  8
MY3DLAYER
10
195.00000000001202
20
97.43346918777561
30
2.999999999974222
 70
     32
  0
VERTEX
  8
MY3DLAYER
10
192.00000000001205
20
97.4334691877747
30
2.9999999999754485
 70
     32
  0
VERTEX
  8
MY3DLAYER
10
192.0000000000076
20
112.4334691877747
30
2.999999999975451
 70
     32
  0
VERTEX
  8
MY3DLAYER
10
195.00000000000756
20
112.43346918777561
30
2.9999999999742246
 70
     32
  0
VERTEX
  8
MY3DLAYER
10
195.0000000000027
20
128.73346918777563
30
2.9999999999742273
 70
     32
  0
SEQEND
  0
POLYLINE
 8
Layer0
 66
     1
70
    8
 10
0.0
 20
 0.0
 30
0.0
  0
VERTEX
  8
MY3DLAYER
10
127.72000000001462
20
88.73346918775556
30
3.00000000000173
 70
     32
  0
VERTEX
  8
MY3DLAYER
10
115.72000000001462
20
88.73346918775198
30
3.000000000006638
 70
     32
  0
VERTEX
  8
MY3DLAYER
10
115.72000000001135
20
99.733469187752
30
3.0000000000066382
 70
     32
  0
VERTEX
  8
MY3DLAYER
10
127.72000000001132
20
99.73346918775556
30
3.0000000000017315
 70
     32
  0
VERTEX
  8
MY3DLAYER
10
127.72000000001462
20
88.73346918775556
30
3.00000000000173
 70
     32
  0
SEQEND
  0
POLYLINE
 8
Layer0
 66
     1
70
    8
 10
0.0
 20
 0.0
 30
0.0
  0
VERTEX
  8
MY3DLAYER
10
130.30000000001462
20
88.73346918775634
30
3.000000000000675
 70
     32
  0
VERTEX
  8
MY3DLAYER
10
130.30000000001104
20
100.73346918775634
30
3.000000000000677
 70
     32
  0
VERTEX
  8
MY3DLAYER
10
144.30000000001104
20
100.73346918776052
30
2.999999999994952
 70
     32
  0
VERTEX
  8
MY3DLAYER
10
144.3000000000146
20
88.7334691877605
30
2.9999999999949507
 70
     32
  0
VERTEX
  8
MY3DLAYER
10
130.30000000001462
20
88.73346918775634
30
3.000000000000675
 70
     32
  0
SEQEND
  0
POLYLINE
 8
Layer0
 66
     1
70
    8
 10
0.0
 20
 0.0
 30
0.0
  0
VERTEX
  8
MY3DLAYER
10
155.1100000000146
20
88.73346918776373
30
2.9999999999905316
 70
     32
  0
VERTEX
  8
MY3DLAYER
10
155.11000000001368
20
91.73346918776372
30
2.9999999999905316
 70
     32
  0
VERTEX
  8
MY3DLAYER
10
171.91000000001372
20
91.73346918776873
30
2.9999999999836624
 70
     32
  0
VERTEX
  8
MY3DLAYER
10
171.91000000001458
20
88.73346918776873
30
2.999999999983661
 70
     32
  0
VERTEX
  8
MY3DLAYER
10
155.1100000000146
20
88.73346918776373
30
2.9999999999905316
 70
     32
  0
SEQEND
  0
POLYLINE
 8
Layer0
 66
     1
70
    8
 10
0.0
 20
 0.0
 30
0.0
  0
VERTEX
  8
MY3DLAYER
10
112.00000000000419
20
123.73346918775088
30
3.000000000008159
 70
     32
  0
VERTEX
  8
MY3DLAYER
10
112.00000000000986
20
104.73346918775087
30
3.000000000008159
 70
     32
  0
VERTEX
  8
MY3DLAYER
10
105.00000000000985
20
104.7334691877488
30
3.0000000000110205
 70
     32
  0
VERTEX
  8
MY3DLAYER
10
105.00000000000418
20
123.73346918774881
30
3.0000000000110205
 70
     32
  0
VERTEX
  8
MY3DLAYER
10
112.00000000000419
20
123.73346918775088
30
3.000000000008159
 70
     32
  0
SEQEND
  0
POLYLINE
 8
Layer0
 66
     1
70
    8
 10
0.0
 20
 0.0
 30
0.0
  0
VERTEX
  8
MY3DLAYER
10
167.13158389659912
20
115.93649340442008
30
2.9999999999856093
 70
     32
  0
VERTEX
  8
MY3DLAYER
10
167.30103494448707
20
115.70385890678568
30
2.99999999998554
 70
     32
  0
VERTEX
  8
MY3DLAYER
10
167.46028319900725
20
115.46511153419908
30
2.9999999999854747
 70
     32
  0
VERTEX
  8
MY3DLAYER
10
167.60922799769054
20
115.2206051526529
30
2.999999999985414
 70
     32
  0
VERTEX
  8
MY3DLAYER
10
167.74776867806804
20
114.97069362813976
30
2.999999999985357
 70
     32
  0
VERTEX
  8
MY3DLAYER
10
167.87580457767066
20
114.71573082665226
30
2.999999999985305
 70
     32
  0
VERTEX
  8
MY3DLAYER
10
167.99323503402937
20
114.45607061418303
30
2.9999999999852567
 70
     32
  0
VERTEX
  8
MY3DLAYER
10
168.09995938467517
20
114.19206685672471
30
2.999999999985213
 70
     32
  0
VERTEX
  8
MY3DLAYER
10
168.19587696713901
20
113.92407342026986
30
2.9999999999851736
 70
     32
  0
VERTEX
  8
MY3DLAYER
10
168.28088711895194
20
113.65244417081114
30
2.999999999985139
 70
     32
  0
VERTEX
  8
MY3DLAYER
10
168.35488917764485
20
113.37753297434116
30
2.999999999985109
 70
     32
  0
VERTEX
  8
MY3DLAYER
10
168.41778248074874
20
113.09969369685253
30
2.999999999985083
 70
     32
  0
VERTEX
  8
MY3DLAYER
10
168.4694663657946
20
112.81928020433784
30
2.9999999999850617
 70
     32
  0
VERTEX
  8
MY3DLAYER
10
168.5098401703134
20
112.53664636278978
30
2.9999999999850466
 70
     32
  0
VERTEX
  8
MY3DLAYER
10
168.53880323183614
20
112.2521460382009
30
2.999999999985035
 70
     32
  0
VERTEX
  8
MY3DLAYER
10
168.55625488789377
20
111.96613309656382
30
2.9999999999850275
 70
     32
  0
VERTEX
  8
MY3DLAYER
10
168.56209447601725
20
111.6789614038712
30
2.999999999985025
 70
     32
  0
VERTEX
  8
MY3DLAYER
10
168.55565714665616
20
111.37583771574313
30
2.999999999985028
 70
     32
  0
VERTEX
  8
MY3DLAYER
10
168.53644596317304
20
111.0743039114689
30
2.9999999999850355
 70
     32
  0
VERTEX
  8
MY3DLAYER
10
168.5046121324686
20
110.77473883517031
30
2.9999999999850484
 70
     32
  0
VERTEX
  8
MY3DLAYER
10
168.46030686144337
20
110.47752133096924
30
2.9999999999850666
 70
     32
  0
VERTEX
  8
MY3DLAYER
10
168.40368135699808
20
110.18303024298751
30
2.9999999999850897
 70
     32
  0
VERTEX
  8
MY3DLAYER
10
168.33488682603328
20
109.891644415347
30
2.9999999999851177
 70
     32
  0
VERTEX
  8
MY3DLAYER
10
168.25407447544964
20
109.60374269216952
30
2.999999999985151
 70
     32
  0
VERTEX
  8
MY3DLAYER
10
168.16139551214772
20
109.3197039175769
30
2.9999999999851887
 70
     32
  0
VERTEX
  8
MY3DLAYER
10
168.05700114302823
20
109.03990693569104
30
2.9999999999852314
 70
     32
  0
VERTEX
  8
MY3DLAYER
10
167.94104257499174
20
108.76473059063372
30
2.9999999999852784
 70
     32
  0
VERTEX
  8
MY3DLAYER
10
167.81367101493888
20
108.49455372652683
30
2.999999999985331
 70
     32
  0
VERTEX
  8
MY3DLAYER
10
167.6750376697703
20
108.22975518749219
30
2.9999999999853872
 70
     32
  0
VERTEX
  8
MY3DLAYER
10
167.52529374638658
20
107.97071381765166
30
2.9999999999854485
 70
     32
  0
VERTEX
  8
MY3DLAYER
10
167.36459045168837
20
107.71780846112705
30
2.999999999985514
 70
     32
  0
VERTEX
  8
MY3DLAYER
10
167.1930789925763
20
107.47141796204025
30
2.999999999985584
 70
     32
  0
VERTEX
  8
MY3DLAYER
10
167.010910575951
20
107.23192116451307
30
2.999999999985659
 70
     32
  0
VERTEX
  8
MY3DLAYER
10
167.02422412875126
20
107.89299635164306
30
2.9999999999856533
 70
     32
  0
VERTEX
  8
MY3DLAYER
10
167.01885157950846
20
108.4912300723121
30
2.9999999999856555
 70
     32
  0
VERTEX
  8
MY3DLAYER
10
166.9946922281306
20
109.03366635104858
30
2.9999999999856657
 70
     32
  0
VERTEX
  8
MY3DLAYER
10
166.95164537452558
20
109.52734921238088
30
2.999999999985683
 70
     32
  0
VERTEX
  8
MY3DLAYER
10
166.88961031860134
20
109.97932268083741
30
2.9999999999857088
 70
     32
  0
VERTEX
  8
MY3DLAYER
10
166.80848636026593
20
110.3966307809466
30
2.999999999985742
 70
     32
  0
VERTEX
  8
MY3DLAYER
10
166.70817279942725
20
110.78631753723681
30
2.999999999985783
 70
     32
  0
VERTEX
  8
MY3DLAYER
10
166.58856893599324
20
111.15542697423649
30
2.9999999999858318
 70
     32
  0
VERTEX
  8
MY3DLAYER
10
166.4495740698719
20
111.51100311647401
30
2.999999999985889
 70
     32
  0
VERTEX
  8
MY3DLAYER
10
166.29108750097114
20
111.86008998847778
30
2.999999999985954
 70
     32
  0
VERTEX
  8
MY3DLAYER
10
166.113008529199
20
112.20973161477622
30
2.9999999999860267
 70
     32
  0
VERTEX
  8
MY3DLAYER
10
165.91523645446333
20
112.5669720198977
30
2.9999999999861076
 70
     32
  0
VERTEX
  8
MY3DLAYER
10
165.69767057667218
20
112.93885522837068
30
2.9999999999861955
 70
     32
  0
VERTEX
  8
MY3DLAYER
10
165.46021019573345
20
113.3324252647235
30
2.9999999999862923
 70
     32
  0
VERTEX
  8
MY3DLAYER
10
165.20275461155518
20
113.75472615348458
30
2.9999999999863975
 70
     32
  0
VERTEX
  8
MY3DLAYER
10
164.92520312404523
20
114.21280191918237
30
2.9999999999865112
 70
     32
  0
VERTEX
  8
MY3DLAYER
10
164.639654314458
20
114.62893740227345
30
2.999999999986628
 70
     32
  0
VERTEX
  8
MY3DLAYER
10
164.36256645920412
20
115.09135221700993
30
2.9999999999867413
 70
     32
  0
VERTEX
  8
MY3DLAYER
10
164.10037759830175
20
115.59421413272786
30
2.9999999999868487
 70
     32
  0
VERTEX
  8
MY3DLAYER
10
163.85952577176909
20
116.13169091876327
30
2.9999999999869478
 70
     32
  0
VERTEX
  8
MY3DLAYER
10
163.6464490196243
20
116.6979503444522
30
2.999999999987035
 70
     32
  0
VERTEX
  8
MY3DLAYER
10
163.46758538188553
20
117.28716017913065
30
2.999999999987108
 70
     32
  0
VERTEX
  8
MY3DLAYER
10
163.32937289857094
20
117.89348819213468
30
2.9999999999871645
 70
     32
  0
VERTEX
  8
MY3DLAYER
10
163.23824960969876
20
118.51110215280032
30
2.999999999987202
 70
     32
  0
VERTEX
  8
MY3DLAYER
10
163.20065355528706
20
119.13416983046358
30
2.9999999999872173
 70
     32
  0
VERTEX
  8
MY3DLAYER
10
163.2230227753541
20
119.75685899446052
30
2.999999999987211
 70
     32
  0
VERTEX
  8
MY3DLAYER
10
163.311795309918
20
120.37333741412712
30
2.999999999987175
 70
     32
  0
VERTEX
  8
MY3DLAYER
10
163.47340919899696
20
120.97777285879948
30
2.999999999987109
 70
     32
  0
VERTEX
  8
MY3DLAYER
10
163.71430248260913
20
121.56433309781359
30
2.999999999987011
 70
     32
  0
VERTEX
  8
MY3DLAYER
10
164.04091320077268
20
122.12718590050548
30
2.999999999986877
 70
     32
  0
VERTEX
  8
MY3DLAYER
10
164.45967939350575
20
122.66049903621119
30
2.9999999999867057
 70
     32
  0
VERTEX
  8
MY3DLAYER
10
164.97703910082657
20
123.15844027426674
30
2.999999999986495
 70
     32
  0
VERTEX
  8
MY3DLAYER
10
164.9643093015145
20
122.53480316637156
30
2.9999999999864997
 70
     32
  0
VERTEX
  8
MY3DLAYER
10
164.96569332302508
20
121.95946929789363
30
2.999999999986499
 70
     32
  0
VERTEX
  8
MY3DLAYER
10
164.9823778851548
20
121.42700984405867
30
2.999999999986492
 70
     32
  0
VERTEX
  8
MY3DLAYER
10
165.01554970770016
20
120.93199598009242
30
2.9999999999864784
 70
     32
  0
VERTEX
  8
MY3DLAYER
10
165.06639551045777
20
120.4689988812206
30
2.9999999999864575
 70
     32
  0
VERTEX
  8
MY3DLAYER
10
165.13610201322402
20
120.03258972266894
30
2.999999999986429
 70
     32
  0
VERTEX
  8
MY3DLAYER
10
165.22585593579555
20
119.61733967966313
30
2.999999999986392
 70
     32
  0
VERTEX
  8
MY3DLAYER
10
165.33684399796877
20
119.21781992742895
30
2.9999999999863465
 70
     32
  0
VERTEX
  8
MY3DLAYER
10
165.47025291954026
20
118.82860164119208
30
2.999999999986289
 70
     32
  0
VERTEX
  8
MY3DLAYER
10
165.6272694203065
20
118.4442559961783
30
2.999999999986225
 70
     32
  0
VERTEX
  8
MY3DLAYER
10
165.80908022006406
20
118.05935416761325
30
2.9999999999861506
 70
     32
  0
VERTEX
  8
MY3DLAYER
10
166.0168720386094
20
117.6684673307227
30
2.999999999986066
 70
     32
  0
VERTEX
  8
MY3DLAYER
10
166.25183159573908
20
117.26616666073241
30
2.9999999999859694
 70
     32
  0
VERTEX
  8
MY3DLAYER
10
166.51514561124955
20
116.84702333286806
30
2.9999999999858615
 70
     32
  0
VERTEX
  8
MY3DLAYER
10
166.80800080493742
20
116.40560852235538
30
2.9999999999857416
 70
     32
  0
VERTEX
  8
MY3DLAYER
10
167.13158389659912
20
115.93649340442008
30
2.9999999999856093
 70
     32
  0
SEQEND
  0
POLYLINE
 8
Layer0
 66
     1
70
    8
 10
0.0
 20
 0.0
 30
0.0
  0
VERTEX
  8
MY3DLAYER
10
169.7037685701021
20
119.7873302912931
30
2.9999999999845612
 70
     32
  0
VERTEX
  8
MY3DLAYER
10
169.82037542798855
20
119.41815521183267
30
2.9999999999845133
 70
     32
  0
VERTEX
  8
MY3DLAYER
10
169.8732686021117
20
119.23010992006252
30
2.9999999999844915
 70
     32
  0
VERTEX
  8
MY3DLAYER
10
169.91467633274084
20
119.0409005707194
30
2.999999999984472
 70
     32
  0
VERTEX
  8
MY3DLAYER
10
169.94320955513965
20
118.8505780353462
30
2.9999999999844604
 70
     32
  0
VERTEX
  8
MY3DLAYER
10
169.95747920457177
20
118.65919318548572
30
2.999999999984454
 70
     32
  0
VERTEX
  8
MY3DLAYER
10
169.95609621630092
20
118.46679689268075
30
2.9999999999844547
 70
     32
  0
VERTEX
  8
MY3DLAYER
10
169.93767152559076
20
118.27344002847414
30
2.9999999999844627
 70
     32
  0
VERTEX
  8
MY3DLAYER
10
169.90081606770494
20
118.07917346440871
30
2.9999999999844773
 70
     32
  0
VERTEX
  8
MY3DLAYER
10
169.8441407779072
20
117.88404807202727
30
2.9999999999845004
 70
     32
  0
VERTEX
  8
MY3DLAYER
10
169.76625659146114
20
117.68811472287267
30
2.9999999999845324
 70
     32
  0
VERTEX
  8
MY3DLAYER
10
169.6657744436305
20
117.49142428848769
30
2.9999999999845737
 70
     32
  0
VERTEX
  8
MY3DLAYER
10
169.5413052696789
20
117.29402764041521
30
2.9999999999846243
 70
     32
  0
VERTEX
  8
MY3DLAYER
10
169.39146000487008
20
117.09597565019797
30
2.9999999999846856
 70
     32
  0
VERTEX
  8
MY3DLAYER
10
169.21484958446763
20
116.89731918937888
30
2.999999999984758
 70
     32
  0
VERTEX
  8
MY3DLAYER
10
169.0100849437353
20
116.69810912950071
30
2.9999999999848415
 70
     32
  0
VERTEX
  8
MY3DLAYER
10
168.77577701793675
20
116.49839634210629
30
2.9999999999849374
 70
     32
  0
VERTEX
  8
MY3DLAYER
10
168.51053674233563
20
116.29823169873843
30
2.9999999999850453
 70
     32
  0
VERTEX
  8
MY3DLAYER
10
168.55666029992486
20
116.70423312243715
30
2.9999999999850266
 70
     32
  0
VERTEX
  8
MY3DLAYER
10
168.56200413897432
20
117.09569579655022
30
2.999999999985025
 70
     32
  0
VERTEX
  8
MY3DLAYER
10
168.53063373777945
20
117.47383101601913
30
2.9999999999850377
 70
     32
  0
VERTEX
  8
MY3DLAYER
10
168.4666145746358
20
117.8398500757853
30
2.999999999985064
 70
     32
  0
VERTEX
  8
MY3DLAYER
10
168.37401212783888
20
118.19496427079018
30
2.9999999999851017
 70
     32
  0
VERTEX
  8
MY3DLAYER
10
168.2568918756842
20
118.54038489597522
30
2.9999999999851497
 70
     32
  0
VERTEX
  8
MY3DLAYER
10
168.11931929646727
20
118.87732324628182
30
2.999999999985206
 70
     32
  0
VERTEX
  8
MY3DLAYER
10
167.96535986848352
20
119.20699061665147
30
2.999999999985272
 70
     32
  0
VERTEX
  8
MY3DLAYER
10
167.79907907002854
20
119.53059830202558
30
2.9999999999853397
 70
     32
  0
VERTEX
  8
MY3DLAYER
10
167.62454237939784
20
119.84935759734557
30
2.9999999999854112
 70
     32
  0
VERTEX
  8
MY3DLAYER
10
167.44581527488685
20
120.16447979755294
30
2.9999999999854845
 70
     32
  0
VERTEX
  8
MY3DLAYER
10
167.26696323479118
20
120.4771761975891
30
2.9999999999855578
 70
     32
  0
VERTEX
  8
MY3DLAYER
10
167.09205173740625
20
120.78865809239547
30
2.9999999999856293
 70
     32
  0
VERTEX
  8
MY3DLAYER
10
166.92514626102758
20
121.10013677691352
30
2.9999999999856977
 70
     32
  0
VERTEX
  8
MY3DLAYER
10
166.7703122839507
20
121.41282354608467
30
2.9999999999857607
 70
     32
  0
VERTEX
  8
MY3DLAYER
10
166.63161528447114
20
121.72792969485039
30
2.999999999985818
 70
     32
  0
VERTEX
  8
MY3DLAYER
10
166.60656913352824
20
121.79295631248064
30
2.9999999999858282
 70
     32
  0
VERTEX
  8
MY3DLAYER
10
166.58313992365808
20
121.8587126113636
30
2.9999999999858376
 70
     32
  0
VERTEX
  8
MY3DLAYER
10
166.56132750854886
20
121.92512320709844
30
2.9999999999858464
 70
     32
  0
VERTEX
  8
MY3DLAYER
10
166.54113174188893
20
121.99211271528448
30
2.999999999985855
 70
     32
  0
VERTEX
  8
MY3DLAYER
10
166.5225524773665
20
122.0596057515209
30
2.9999999999858624
 70
     32
  0
VERTEX
  8
MY3DLAYER
10
166.50558956866988
20
122.12752693140699
30
2.999999999985869
 70
     32
  0
VERTEX
  8
MY3DLAYER
10
166.49024286948733
20
122.19580087054197
30
2.9999999999858757
 70
     32
  0
VERTEX
  8
MY3DLAYER
10
166.47651223350712
20
122.26435218452508
30
2.999999999985881
 70
     32
  0
VERTEX
  8
MY3DLAYER
10
166.46439751441753
20
122.33310548895564
30
2.9999999999858864
 70
     32
  0
VERTEX
  8
MY3DLAYER
10
166.4538985659068
20
122.40198539943277
30
2.9999999999858904
 70
     32
  0
VERTEX
  8
MY3DLAYER
10
166.44501524166324
20
122.47091653155583
30
2.999999999985894
 70
     32
  0
VERTEX
  8
MY3DLAYER
10
166.4377473953751
20
122.53982350092403
30
2.999999999985897
 70
     32
  0
VERTEX
  8
MY3DLAYER
10
166.43209488073066
20
122.60863092313659
30
2.9999999999858993
 70
     32
  0
VERTEX
  8
MY3DLAYER
10
166.42805755141822
20
122.67726341379279
30
2.999999999985901
 70
     32
  0
VERTEX
  8
MY3DLAYER
10
166.42563526112602
20
122.74564558849184
30
2.999999999985902
 70
     32
  0
VERTEX
  8
MY3DLAYER
10
166.4248278635423
20
122.81370206283302
30
2.9999999999859024
 70
     32
  0
VERTEX
  8
MY3DLAYER
10
166.4302434657076
20
122.99400886471393
30
2.9999999999859
 70
     32
  0
VERTEX
  8
MY3DLAYER
10
166.4463388228436
20
123.17267760047045
30
2.9999999999858935
 70
     32
  0
VERTEX
  8
MY3DLAYER
10
166.47288676091014
20
123.34927859973189
30
2.999999999985883
 70
     32
  0
VERTEX
  8
MY3DLAYER
10
166.50966010586714
20
123.52338219212746
30
2.9999999999858677
 70
     32
  0
VERTEX
  8
MY3DLAYER
10
166.5564316836746
20
123.69455870728645
30
2.9999999999858487
 70
     32
  0
VERTEX
  8
MY3DLAYER
10
166.61297432029232
20
123.86237847483812
30
2.9999999999858256
 70
     32
  0
VERTEX
  8
MY3DLAYER
10
166.67906084168024
20
124.02641182441175
30
2.999999999985799
 70
     32
  0
VERTEX
  8
MY3DLAYER
10
166.75446407379832
20
124.18622908563661
30
2.999999999985768
 70
     32
  0
VERTEX
  8
MY3DLAYER
10
166.8389568426064
20
124.34140058814194
30
2.999999999985733
 70
     32
  0
VERTEX
  8
MY3DLAYER
10
166.93231197406445
20
124.491496661557
30
2.999999999985695
 70
     32
  0
VERTEX
  8
MY3DLAYER
10
167.03430229413232
20
124.63608763551106
30
2.9999999999856537
 70
     32
  0
VERTEX
  8
MY3DLAYER
10
167.14470062876995
20
124.77474383963343
30
2.9999999999856084
 70
     32
  0
VERTEX
  8
MY3DLAYER
10
167.2632798039373
20
124.90703560355331
30
2.999999999985558
 70
     32
  0
VERTEX
  8
MY3DLAYER
10
167.38981264559422
20
125.0325332569
30
2.9999999999855067
 70
     32
  0
VERTEX
  8
MY3DLAYER
10
167.5240719797006
20
125.15080712930276
30
2.999999999985452
 70
     32
  0
VERTEX
  8
MY3DLAYER
10
167.6658306322164
20
125.26142755039086
30
2.999999999985394
 70
     32
  0
VERTEX
  8
MY3DLAYER
10
167.7036614162754
20
124.8710435617411
30
2.9999999999853797
 70
     32
  0
VERTEX
  8
MY3DLAYER
10
167.7697200300948
20
124.48790350552873
30
2.999999999985353
 70
     32
  0
VERTEX
  8
MY3DLAYER
10
167.86072417488808
20
124.11117452387397
30
2.9999999999853153
 70
     32
  0
VERTEX
  8
MY3DLAYER
10
167.97339155186887
20
123.74002375889715
30
2.9999999999852696
 70
     32
  0
VERTEX
  8
MY3DLAYER
10
168.10443986225064
20
123.37361835271854
30
2.999999999985216
 70
     32
  0
VERTEX
  8
MY3DLAYER
10
168.25058680724695
20
123.01112544745837
30
2.999999999985156
 70
     32
  0
VERTEX
  8
MY3DLAYER
10
168.4085500880713
20
122.65171218523696
30
2.9999999999850915
 70
     32
  0
VERTEX
  8
MY3DLAYER
10
168.5750474059373
20
122.29454570817455
30
2.999999999985023
 70
     32
  0
VERTEX
  8
MY3DLAYER
10
168.74679646205848
20
121.93879315839145
30
2.999999999984953
 70
     32
  0
VERTEX
  8
MY3DLAYER
10
168.92051495764838
20
121.5836216780079
30
2.9999999999848814
 70
     32
  0
VERTEX
  8
MY3DLAYER
10
169.09292059392047
20
121.22819840914417
30
2.9999999999848113
 70
     32
  0
VERTEX
  8
MY3DLAYER
10
169.26073107208836
20
120.87169049392055
30
2.9999999999847424
 70
     32
  0
VERTEX
  8
MY3DLAYER
10
169.42066409336556
20
120.51326507445734
30
2.999999999984677
 70
     32
  0
VERTEX
  8
MY3DLAYER
10
169.56943735896564
20
120.15208929287475
30
2.9999999999846163
 70
     32
  0
VERTEX
  8
MY3DLAYER
10
169.7037685701021
20
119.7873302912931
30
2.9999999999845612
 70
     32
  0
SEQEND
  0
POLYLINE
 8
Layer0
 66
     1
70
    8
 10
0.0
 20
 0.0
 30
0.0
  0
VERTEX
  8
MY3DLAYER
10
151.91181882225635
20
117.52223381376945
30
2.999999999991833
 70
     32
  0
VERTEX
  8
MY3DLAYER
10
153.84229801379945
20
117.52223381377003
30
2.9999999999910436
 70
     32
  0
VERTEX
  8
MY3DLAYER
10
152.82536227624144
20
111.420338006154
30
2.9999999999914597
 70
     32
  0
VERTEX
  8
MY3DLAYER
10
150.8948830846983
20
111.42033800615341
30
2.9999999999922493
 70
     32
  0
VERTEX
  8
MY3DLAYER
10
151.91181882225635
20
117.52223381376945
30
2.999999999991833
 70
     32
  0
SEQEND
  0
POLYLINE
 8
Layer0
 66
     1
70
    8
 10
0.0
 20
 0.0
 30
0.0
  0
VERTEX
  8
MY3DLAYER
10
145.05161081748204
20
117.52223381376741
30
2.9999999999946385
 70
     32
  0
VERTEX
  8
MY3DLAYER
10
146.99936819232394
20
117.52223381376798
30
2.999999999993842
 70
     32
  0
VERTEX
  8
MY3DLAYER
10
146.4132853372322
20
114.02301472382089
30
2.999999999994081
 70
     32
  0
VERTEX
  8
MY3DLAYER
10
146.40479822187413
20
113.96241839703454
30
2.9999999999940843
 70
     32
  0
VERTEX
  8
MY3DLAYER
10
146.39871095621208
20
113.90343897913232
30
2.9999999999940865
 70
     32
  0
VERTEX
  8
MY3DLAYER
10
146.3949981167022
20
113.84607632840084
30
2.9999999999940883
 70
     32
  0
VERTEX
  8
MY3DLAYER
10
146.39363427980044
20
113.79033030312681
30
2.9999999999940887
 70
     32
  0
VERTEX
  8
MY3DLAYER
10
146.39459402196297
20
113.7362007615968
30
2.9999999999940883
 70
     32
  0
VERTEX
  8
MY3DLAYER
10
146.3978519196458
20
113.68368756209752
30
2.999999999994087
 70
     32
  0
VERTEX
  8
MY3DLAYER
10
146.40338254930504
20
113.63279056291556
30
2.9999999999940847
 70
     32
  0
VERTEX
  8
MY3DLAYER
10
146.4111604873967
20
113.58350962233754
30
2.9999999999940816
 70
     32
  0
VERTEX
  8
MY3DLAYER
10
146.42116031037693
20
113.53584459865017
30
2.9999999999940776
 70
     32
  0
VERTEX
  8
MY3DLAYER
10
146.4333565947017
20
113.48979535014004
30
2.9999999999940727
 70
     32
  0
VERTEX
  8
MY3DLAYER
10
146.44772391682716
20
113.44536173509381
30
2.9999999999940665
 70
     32
  0
VERTEX
  8
MY3DLAYER
10
146.46423685320934
20
113.40254361179811
30
2.99999999999406
 70
     32
  0
VERTEX
  8
MY3DLAYER
10
146.48286998030434
20
113.36134083853959
30
2.9999999999940523
 70
     32
  0
VERTEX
  8
MY3DLAYER
10
146.50359787456821
20
113.32175327360487
30
2.999999999994044
 70
     32
  0
VERTEX
  8
MY3DLAYER
10
146.526395112457
20
113.2837807752806
30
2.9999999999940345
 70
     32
  0
VERTEX
  8
MY3DLAYER
10
146.5512362704268
20
113.24742320185345
30
2.9999999999940243
 70
     32
  0
VERTEX
  8
MY3DLAYER
10
146.5779065781885
20
113.21004802558389
30
2.9999999999940132
 70
     32
  0
VERTEX
  8
MY3DLAYER
10
146.60624195396667
20
113.17545261350702
30
2.9999999999940017
 70
     32
  0
VERTEX
  8
MY3DLAYER
10
146.63629308725064
20
113.14358612459645
30
2.9999999999939893
 70
     32
  0
VERTEX
  8
MY3DLAYER
10
146.66811066752956
20
113.11439771782584
30
2.999999999993977
 70
     32
  0
VERTEX
  8
MY3DLAYER
10
146.70174538429274
20
113.08783655216877
30
2.9999999999939626
 70
     32
  0
VERTEX
  8
MY3DLAYER
10
146.7372479270293
20
113.06385178659889
30
2.999999999993948
 70
     32
  0
VERTEX
  8
MY3DLAYER
10
146.77466898522857
20
113.04239258008981
30
2.999999999993933
 70
     32
  0
VERTEX
  8
MY3DLAYER
10
146.81405924837975
20
113.02340809161514
30
2.999999999993917
 70
     32
  0
VERTEX
  8
MY3DLAYER
10
146.85546940597203
20
113.00684748014855
30
2.9999999999939
 70
     32
  0
VERTEX
  8
MY3DLAYER
10
146.89895014749473
20
112.99265990466364
30
2.9999999999938822
 70
     32
  0
VERTEX
  8
MY3DLAYER
10
146.94455216243693
20
112.98079452413401
30
2.9999999999938636
 70
     32
  0
VERTEX
  8
MY3DLAYER
10
146.99232614028801
20
112.97120049753333
30
2.9999999999938436
 70
     32
  0
VERTEX
  8
MY3DLAYER
10
147.04232277053714
20
112.96382698383518
30
2.999999999993823
 70
     32
  0
VERTEX
  8
MY3DLAYER
10
147.0945927426735
20
112.95862314201321
30
2.9999999999938023
 70
     32
  0
VERTEX
  8
MY3DLAYER
10
147.14918674618644
20
112.95553813104102
30
2.9999999999937796
 70
     32
  0
VERTEX
  8
MY3DLAYER
10
147.20615547056508
20
112.95452110989227
30
2.9999999999937565
 70
     32
  0
VERTEX
  8
MY3DLAYER
10
147.24151004668326
20
112.95492948954467
30
2.999999999993742
 70
     32
  0
VERTEX
  8
MY3DLAYER
10
147.27648990864165
20
112.95617142759644
30
2.9999999999937277
 70
     32
  0
VERTEX
  8
MY3DLAYER
10
147.31111973149524
20
112.95827212268952
30
2.999999999993714
 70
     32
  0
VERTEX
  8
MY3DLAYER
10
147.34542419029884
20
112.96125677346575
30
2.9999999999936997
 70
     32
  0
VERTEX
  8
MY3DLAYER
10
147.3794279601075
20
112.96515057856708
30
2.9999999999936855
 70
     32
  0
VERTEX
  8
MY3DLAYER
10
147.41315571597607
20
112.9699787366354
30
2.9999999999936717
 70
     32
  0
VERTEX
  8
MY3DLAYER
10
147.44663213295954
20
112.97576644631262
30
2.999999999993658
 70
     32
  0
VERTEX
  8
MY3DLAYER
10
147.4798818861128
20
112.98253890624063
30
2.9999999999936446
 70
     32
  0
VERTEX
  8
MY3DLAYER
10
147.5129296504908
20
112.99032131506134
30
2.999999999993631
 70
     32
  0
VERTEX
  8
MY3DLAYER
10
147.54580010114847
20
112.99913887141665
30
2.9999999999936175
 70
     32
  0
VERTEX
  8
MY3DLAYER
10
147.57851791314073
20
113.00901677394847
30
2.9999999999936042
 70
     32
  0
VERTEX
  8
MY3DLAYER
10
147.61110776152256
20
113.0199802212987
30
2.999999999993591
 70
     32
  0
VERTEX
  8
MY3DLAYER
10
147.64359432134887
20
113.03205441210925
30
2.9999999999935776
 70
     32
  0
VERTEX
  8
MY3DLAYER
10
147.67600226767456
20
113.045264545022
30
2.9999999999935643
 70
     32
  0
VERTEX
  8
MY3DLAYER
10
147.7083562755546
20
113.05963581867886
30
2.9999999999935514
 70
     32
  0
VERTEX
  8
MY3DLAYER
10
147.7406810200439
20
113.07519343172177
30
2.999999999993538
 70
     32
  0
VERTEX
  8
MY3DLAYER
10
147.77259891261912
20
113.09194806706668
30
2.9999999999935247
 70
     32
  0
VERTEX
  8
MY3DLAYER
10
147.80373291335616
20
113.10986035759234
30
2.9999999999935123
 70
     32
  0
VERTEX
  8
MY3DLAYER
10
147.83410843994653
20
113.12888034662218
30
2.9999999999935
 70
     32
  0
VERTEX
  8
MY3DLAYER
10
147.86375091008168
20
113.14895807747979
30
2.999999999993488
 70
     32
  0
VERTEX
  8
MY3DLAYER
10
147.89268574145308
20
113.17004359348866
30
2.999999999993476
 70
     32
  0
VERTEX
  8
MY3DLAYER
10
147.9209383517522
20
113.19208693797229
30
2.9999999999934643
 70
     32
  0
VERTEX
  8
MY3DLAYER
10
147.94853415867044
20
113.21503815425423
30
2.999999999993453
 70
     32
  0
VERTEX
  8
MY3DLAYER
10
147.97549857989932
20
113.23884728565793
30
2.999999999993442
 70
     32
  0
VERTEX
  8
MY3DLAYER
10
148.0018570331303
20
113.26346437550696
30
2.999999999993431
 70
     32
  0
VERTEX
  8
MY3DLAYER
10
148.02763493605482
20
113.28883946712477
30
2.999999999993421
 70
     32
  0
VERTEX
  8
MY3DLAYER
10
148.05285770636436
20
113.31492260383494
30
2.99999999999341
 70
     32
  0
VERTEX
  8
MY3DLAYER
10
148.07755076175036
20
113.34166382896096
30
2.9999999999934004
 70
     32
  0
VERTEX
  8
MY3DLAYER
10
148.1017395199043
20
113.36901318582632
30
2.9999999999933906
 70
     32
  0
VERTEX
  8
MY3DLAYER
10
148.12544939851765
20
113.39692071775455
30
2.9999999999933804
 70
     32
  0
VERTEX
  8
MY3DLAYER
10
148.14870581528183
20
113.42533646806916
30
2.999999999993371
 70
     32
  0
VERTEX
  8
MY3DLAYER
10
148.17153418788834
20
113.45421048009369
30
2.9999999999933618
 70
     32
  0
VERTEX
  8
MY3DLAYER
10
148.19374921145345
20
113.48674016728755
30
2.999999999993353
 70
     32
  0
VERTEX
  8
MY3DLAYER
10
148.2151317361251
20
113.51972610294189
30
2.999999999993344
 70
     32
  0
VERTEX
  8
MY3DLAYER
10
148.2356564121423
20
113.55321853134033
30
2.9999999999933356
 70
     32
  0
VERTEX
  8
MY3DLAYER
10
148.255297889744
20
113.58726769676636
30
2.9999999999933276
 70
     32
  0
VERTEX
  8
MY3DLAYER
10
148.27403081916924
20
113.62192384350352
30
2.99999999999332
 70
     32
  0
VERTEX
  8
MY3DLAYER
10
148.2918298506569
20
113.65723721583537
30
2.9999999999933125
 70
     32
  0
VERTEX
  8
MY3DLAYER
10
148.3086696344461
20
113.69325805804542
30
2.999999999993306
 70
     32
  0
VERTEX
  8
MY3DLAYER
10
148.3245248207757
20
113.73003661441726
30
2.999999999993299
 70
     32
  0
VERTEX
  8
MY3DLAYER
10
148.33937005988474
20
113.7676231292344
30
2.9999999999932934
 70
     32
  0
VERTEX
  8
MY3DLAYER
10
148.3531800020122
20
113.80606784678038
30
2.9999999999932876
 70
     32
  0
VERTEX
  8
MY3DLAYER
10
148.3659292973971
20
113.84542101133874
30
2.9999999999932823
 70
     32
  0
VERTEX
  8
MY3DLAYER
10
148.37759259627833
20
113.88573286719304
30
2.999999999993278
 70
     32
  0
VERTEX
  8
MY3DLAYER
10
148.38814454889496
20
113.92705365862685
30
2.9999999999932734
 70
     32
  0
VERTEX
  8
MY3DLAYER
10
148.3975598054859
20
113.96943362992363
30
2.9999999999932694
 70
     32
  0
VERTEX
  8
MY3DLAYER
10
148.4058130162902
20
114.01292302536696
30
2.9999999999932663
 70
     32
  0
VERTEX
  8
MY3DLAYER
10
148.41287883154683
20
114.05757208924041
30
2.999999999993263
 70
     32
  0
VERTEX
  8
MY3DLAYER
10
148.9816832179623
20
117.52223381376857
30
2.9999999999930314
 70
     32
  0
VERTEX
  8
MY3DLAYER
10
150.9291612081903
20
117.52223381376915
30
2.999999999992235
 70
     32
  0
VERTEX
  8
MY3DLAYER
10
149.91222547063225
20
111.42033800615313
30
2.9999999999926508
 70
     32
  0
VERTEX
  8
MY3DLAYER
10
148.05086186605962
20
111.42033800615258
30
2.9999999999934124
 70
     32
  0
VERTEX
  8
MY3DLAYER
10
148.24037039024518
20
112.55794663629688
30
2.9999999999933347
 70
     32
  0
VERTEX
  8
MY3DLAYER
10
148.18881294194244
20
112.55794663629688
30
2.999999999993356
 70
     32
  0
VERTEX
  8
MY3DLAYER
10
148.15224727108605
20
112.49069755790205
30
2.999999999993371
 70
     32
  0
VERTEX
  8
MY3DLAYER
10
148.11363397846193
20
112.42473766872263
30
2.9999999999933866
 70
     32
  0
VERTEX
  8
MY3DLAYER
10
148.0729481693385
20
112.36014249968008
30
2.999999999993403
 70
     32
  0
VERTEX
  8
MY3DLAYER
10
148.03016494898426
20
112.2969875816959
30
2.999999999993421
 70
     32
  0
VERTEX
  8
MY3DLAYER
10
147.9852594226677
20
112.2353484456916
30
2.999999999993439
 70
     32
  0
VERTEX
  8
MY3DLAYER
10
147.93820669565721
20
112.1753006225887
30
2.9999999999934586
 70
     32
  0
VERTEX
  8
MY3DLAYER
10
147.88898187322127
20
112.11691964330865
30
2.9999999999934785
 70
     32
  0
VERTEX
  8
MY3DLAYER
10
147.83756006062836
20
112.06028103877298
30
2.9999999999934994
 70
     32
  0
VERTEX
  8
MY3DLAYER
10
147.78391636314694
20
112.00546033990318
30
2.9999999999935216
 70
     32
  0
VERTEX
  8
MY3DLAYER
10
147.7280258860454
20
111.95253307762076
30
2.9999999999935443
 70
     32
  0
VERTEX
  8
MY3DLAYER
10
147.66986373459233
20
111.90157478284719
30
2.9999999999935683
 70
     32
  0
VERTEX
  8
MY3DLAYER
10
147.60940501405602
20
111.85266098650399
30
2.9999999999935927
 70
     32
  0
VERTEX
  8
MY3DLAYER
10
147.54662482970508
20
111.80586721951268
30
2.9999999999936184
 70
     32
  0
VERTEX
  8
MY3DLAYER
10
147.4814982868079
20
111.76126901279471
30
2.999999999993645
 70
     32
  0
VERTEX
  8
MY3DLAYER
10
147.4140004906329
20
111.7189418972716
30
2.999999999993673
 70
     32
  0
VERTEX
  8
MY3DLAYER
10
147.34410654644861
20
111.67896140386488
30
2.9999999999937015
 70
     32
  0
VERTEX
  8
MY3DLAYER
10
147.2756370084244
20
111.63835766656356
30
2.9999999999937295
 70
     32
  0
VERTEX
  8
MY3DLAYER
10
147.20598209395442
20
111.60055720930296
30
2.999999999993758
 70
     32
  0
VERTEX
  8
MY3DLAYER
10
147.13516686435642
20
111.56553468671137
30
2.9999999999937867
 70
     32
  0
VERTEX
  8
MY3DLAYER
10
147.06321638094843
20
111.53326475341719
30
2.999999999993816
 70
     32
  0
VERTEX
  8
MY3DLAYER
10
146.99015570504827
20
111.50372206404866
30
2.999999999993846
 70
     32
  0
VERTEX
  8
MY3DLAYER
10
146.91600989797385
20
111.47688127323421
30
2.9999999999938765
 70
     32
  0
VERTEX
  8
MY3DLAYER
10
146.84080402104308
20
111.45271703560212
30
2.999999999993907
 70
     32
  0
VERTEX
  8
MY3DLAYER
10
146.76456313557384
20
111.43120400578076
30
2.999999999993938
 70
     32
  0
VERTEX
  8
MY3DLAYER
10
146.68731230288407
20
111.4123168383984
30
2.9999999999939697
 70
     32
  0
VERTEX
  8
MY3DLAYER
10
146.60907658429159
20
111.39603018808346
30
2.9999999999940017
 70
     32
  0
VERTEX
  8
MY3DLAYER
10
146.52988104111432
20
111.3823187094642
30
2.999999999994034
 70
     32
  0
VERTEX
  8
MY3DLAYER
10
146.4497507346702
20
111.37115705716903
30
2.999999999994067
 70
     32
  0
VERTEX
  8
MY3DLAYER
10
146.3687107262771
20
111.3625198858262
30
2.9999999999941003
 70
     32
  0
VERTEX
  8
MY3DLAYER
10
146.2867860772529
20
111.3563818500641
30
2.9999999999941336
 70
     32
  0
VERTEX
  8
MY3DLAYER
10
146.2040018489155
20
111.35271760451108
30
2.9999999999941673
 70
     32
  0
VERTEX
  8
MY3DLAYER
10
146.12038310258282
20
111.35150180379546
30
2.9999999999942015
 70
     32
  0
VERTEX
  8
MY3DLAYER
10
146.0436220740775
20
111.35251729720589
30
2.999999999994233
 70
     32
  0
VERTEX
  8
MY3DLAYER
10
145.96845026224452
20
111.35558037726926
30
2.9999999999942637
 70
     32
  0
VERTEX
  8
MY3DLAYER
10
145.8948426256226
20
111.36071594373351
30
2.999999999994294
 70
     32
  0
VERTEX
  8
MY3DLAYER
10
145.8227741227504
20
111.36794889634653
30
2.999999999994323
 70
     32
  0
VERTEX
  8
MY3DLAYER
10
145.75221971216664
20
111.37730413485635
30
2.999999999994352
 70
     32
  0
VERTEX
  8
MY3DLAYER
10
145.68315435240999
20
111.3888065590108
30
2.9999999999943805
 70
     32
  0
VERTEX
  8
MY3DLAYER
10
145.61555300201917
20
111.40248106855793
30
2.999999999994408
 70
     32
  0
VERTEX
  8
MY3DLAYER
10
145.5493906195329
20
111.41835256324565
30
2.999999999994435
 70
     32
  0
VERTEX
  8
MY3DLAYER
10
145.48464216348978
20
111.43644594282188
30
2.9999999999944618
 70
     32
  0
VERTEX
  8
MY3DLAYER
10
145.42128259242867
20
111.45678610703456
30
2.9999999999944875
 70
     32
  0
VERTEX
  8
MY3DLAYER
10
145.35928686488808
20
111.47939795563167
30
2.999999999994513
 70
     32
  0
VERTEX
  8
MY3DLAYER
10
145.29862993940685
20
111.50430638836114
30
2.9999999999945377
 70
     32
  0
VERTEX
  8
MY3DLAYER
10
145.23928677452363
20
111.53153630497093
30
2.9999999999945617
 70
     32
  0
VERTEX
  8
MY3DLAYER
10
145.18123232877707
20
111.56111260520893
30
2.9999999999945857
 70
     32
  0
VERTEX
  8
MY3DLAYER
10
145.12444156070595
20
111.59306018882316
30
2.9999999999946088
 70
     32
  0
VERTEX
  8
MY3DLAYER
10
145.0688894288489
20
111.62740395556149
30
2.999999999994632
 70
     32
  0
VERTEX
  8
MY3DLAYER
10
145.01799131215884
20
111.66395713035124
30
2.9999999999946523
 70
     32
  0
VERTEX
  8
MY3DLAYER
10
144.96873259058438
20
111.70249997952168
30
2.9999999999946727
 70
     32
  0
VERTEX
  8
MY3DLAYER
10
144.92113876563272
20
111.74300796492388
30
2.999999999994692
 70
     32
  0
VERTEX
  8
MY3DLAYER
10
144.87523533881102
20
111.7854565484089
30
2.999999999994711
 70
     32
  0
VERTEX
  8
MY3DLAYER
10
144.8310478116265
20
111.82982119182773
30
2.999999999994729
 70
     32
  0
VERTEX
  8
MY3DLAYER
10
144.7886016855863
20
111.87607735703148
30
2.999999999994746
 70
     32
  0
VERTEX
  8
MY3DLAYER
10
144.74792246219758
20
111.92420050587111
30
2.999999999994763
 70
     32
  0
VERTEX
  8
MY3DLAYER
10
144.70903564296754
20
111.97416610019772
30
2.999999999994779
 70
     32
  0
VERTEX
  8
MY3DLAYER
10
144.6719667294034
20
112.02594960186235
30
2.999999999994794
 70
     32
  0
VERTEX
  8
MY3DLAYER
10
144.6367412230123
20
112.07952647271603
30
2.999999999994808
 70
     32
  0
VERTEX
  8
MY3DLAYER
10
144.60338462530146
20
112.13487217460981
30
2.999999999994822
 70
     32
  0
VERTEX
  8
MY3DLAYER
10
144.57192243777803
20
112.1919621693947
30
2.9999999999948352
 70
     32
  0
VERTEX
  8
MY3DLAYER
10
144.54238016194918
20
112.25077191892177
30
2.999999999994847
 70
     32
  0
VERTEX
  8
MY3DLAYER
10
144.5147832993221
20
112.31127688504205
30
2.9999999999948583
 70
     32
  0
VERTEX
  8
MY3DLAYER
10
144.48915735140397
20
112.37345252960658
30
2.999999999994869
 70
     32
  0
VERTEX
  8
MY3DLAYER
10
144.465527819702
20
112.43727431446642
30
2.9999999999948783
 70
     32
  0
VERTEX
  8
MY3DLAYER
10
144.4441139552323
20
112.50252307844778
30
2.999999999994887
 70
     32
  0
VERTEX
  8
MY3DLAYER
10
144.4251009617145
20
112.5690125679747
30
2.9999999999948948
 70
     32
  0
VERTEX
  8
MY3DLAYER
10
144.40846326971098
20
112.63676752603256
30
2.999999999994902
 70
     32
  0
VERTEX
  8
MY3DLAYER
10
144.39417530978412
20
112.70581269560677
30
2.9999999999949063
 70
     32
  0
VERTEX
  8
MY3DLAYER
10
144.3822115124963
20
112.77617281968267
30
2.999999999994911
 70
     32
  0
VERTEX
  8
MY3DLAYER
10
144.37254630840988
20
112.84787264124567
30
2.999999999994915
 70
     32
  0
VERTEX
  8
MY3DLAYER
10
144.36515412808723
20
112.92093690328113
30
2.9999999999949183
 70
     32
  0
VERTEX
  8
MY3DLAYER
10
144.36000940209072
20
112.99539034877445
30
2.9999999999949205
 70
     32
  0
VERTEX
  8
MY3DLAYER
10
144.35708656098276
20
113.07125772071096
30
2.9999999999949214
 70
     32
  0
VERTEX
  8
MY3DLAYER
10
144.35636003532568
20
113.14856376207607
30
2.999999999994922
 70
     32
  0
VERTEX
  8
MY3DLAYER
10
144.35780425568188
20
113.22733321585518
30
2.9999999999949214
 70
     32
  0
VERTEX
  8
MY3DLAYER
10
144.3613936526137
20
113.30759082503361
30
2.9999999999949196
 70
     32
  0
VERTEX
  8
MY3DLAYER
10
144.36710265668358
20
113.38936133259679
30
2.9999999999949174
 70
     32
  0
VERTEX
  8
MY3DLAYER
10
144.37490569845386
20
113.47266948153008
30
2.9999999999949143
 70
     32
  0
VERTEX
  8
MY3DLAYER
10
144.3847772084869
20
113.55754001481887
30
2.9999999999949103
 70
     32
  0
VERTEX
  8
MY3DLAYER
10
144.39669161734508
20
113.6439976754485
30
2.9999999999949054
 70
     32
  0
VERTEX
  8
MY3DLAYER
10
145.05161081748204
20
117.52223381376741
30
2.9999999999946385
 70
     32
  0
SEQEND
  0
POLYLINE
 8
Layer0
 66
     1
70
    8
 10
0.0
 20
 0.0
 30
0.0
  0
VERTEX
  8
MY3DLAYER
10
165.30360779896273
20
109.49290305982989
30
2.999999999986357
 70
     32
  0
VERTEX
  8
MY3DLAYER
10
165.44244991947178
20
109.12812080567423
30
2.9999999999863003
 70
     32
  0
VERTEX
  8
MY3DLAYER
10
165.50464844112918
20
108.93683604143136
30
2.999999999986275
 70
     32
  0
VERTEX
  8
MY3DLAYER
10
165.5546491881027
20
108.74433811677254
30
2.9999999999862546
 70
     32
  0
VERTEX
  8
MY3DLAYER
10
165.59116485964327
20
108.55062720518161
30
2.9999999999862395
 70
     32
  0
VERTEX
  8
MY3DLAYER
10
165.61290815500192
20
108.35570348014252
30
2.9999999999862306
 70
     32
  0
VERTEX
  8
MY3DLAYER
10
165.61859177342964
20
108.1595671151392
30
2.9999999999862283
 70
     32
  0
VERTEX
  8
MY3DLAYER
10
165.60692841417745
20
107.9622182836555
30
2.9999999999862332
 70
     32
  0
VERTEX
  8
MY3DLAYER
10
165.57663077649627
20
107.76365715917535
30
2.9999999999862452
 70
     32
  0
VERTEX
  8
MY3DLAYER
10
165.5264115596372
20
107.56388391518267
30
2.9999999999862657
 70
     32
  0
VERTEX
  8
MY3DLAYER
10
165.45498346285117
20
107.36289872516136
30
2.999999999986295
 70
     32
  0
VERTEX
  8
MY3DLAYER
10
165.3610591853892
20
107.16070176259531
30
2.999999999986333
 70
     32
  0
VERTEX
  8
MY3DLAYER
10
165.24335142650224
20
106.95729320096844
30
2.9999999999863785
 70
     32
  0
VERTEX
  8
MY3DLAYER
10
165.10057288544138
20
106.75267321376464
30
2.9999999999864366
 70
     32
  0
VERTEX
  8
MY3DLAYER
10
164.93143626145752
20
106.54684197446782
30
2.999999999986506
 70
     32
  0
VERTEX
  8
MY3DLAYER
10
164.7346542538017
20
106.33979965656194
30
2.9999999999865867
 70
     32
  0
VERTEX
  8
MY3DLAYER
10
164.50893956172493
20
106.13154643353083
30
2.9999999999866787
 70
     32
  0
VERTEX
  8
MY3DLAYER
10
164.25300488447817
20
105.9220824788584
30
2.9999999999867835
 70
     32
  0
VERTEX
  8
MY3DLAYER
10
164.27993688630255
20
106.32976005521982
30
2.9999999999867724
 70
     32
  0
VERTEX
  8
MY3DLAYER
10
164.2664711874194
20
106.72004058247462
30
2.999999999986778
 70
     32
  0
VERTEX
  8
MY3DLAYER
10
164.21664755079286
20
107.09451482924453
30
2.9999999999868012
 70
     32
  0
VERTEX
  8
MY3DLAYER
10
164.13450573938715
20
107.45477356415131
30
2.999999999986835
 70
     32
  0
VERTEX
  8
MY3DLAYER
10
164.02408551616648
20
107.8024075558167
30
2.9999999999868803
 70
     32
  0
VERTEX
  8
MY3DLAYER
10
163.88942664409493
20
108.13900757286245
30
2.9999999999869353
 70
     32
  0
VERTEX
  8
MY3DLAYER
10
163.73456888613683
20
108.46616438391032
30
2.999999999986999
 70
     32
  0
VERTEX
  8
MY3DLAYER
10
163.56355200525624
20
108.78546875758205
30
2.9999999999870686
 70
     32
  0
VERTEX
  8
MY3DLAYER
10
163.38041576441742
20
109.09851146249939
30
2.9999999999871436
 70
     32
  0
VERTEX
  8
MY3DLAYER
10
163.18919992658454
20
109.40688326728409
30
2.9999999999872218
 70
     32
  0
VERTEX
  8
MY3DLAYER
10
162.99394425472175
20
109.71217494055789
30
2.9999999999873013
 70
     32
  0
VERTEX
  8
MY3DLAYER
10
162.7986885117933
20
110.01597725094254
30
2.9999999999873816
 70
     32
  0
VERTEX
  8
MY3DLAYER
10
162.60747246076332
20
110.3198809670598
30
2.99999999998746
 70
     32
  0
VERTEX
  8
MY3DLAYER
10
162.42433586459603
20
110.62547685753142
30
2.999999999987535
 70
     32
  0
VERTEX
  8
MY3DLAYER
10
162.25331848625555
20
110.93435569097915
30
2.9999999999876046
 70
     32
  0
VERTEX
  8
MY3DLAYER
10
162.0984600887062
20
111.24810823602472
30
2.999999999987668
 70
     32
  0
VERTEX
  8
MY3DLAYER
10
162.0671507200554
20
111.32264214485171
30
2.999999999987681
 70
     32
  0
VERTEX
  8
MY3DLAYER
10
162.03785970497424
20
111.3975795866506
30
2.999999999987693
 70
     32
  0
VERTEX
  8
MY3DLAYER
10
162.01058726502043
20
111.4729206251715
30
2.999999999987704
 70
     32
  0
VERTEX
  8
MY3DLAYER
10
161.9853336217518
20
111.54866532416446
30
2.9999999999877143
 70
     32
  0
VERTEX
  8
MY3DLAYER
10
161.96209899672607
20
111.62481374737966
30
2.9999999999877236
 70
     32
  0
VERTEX
  8
MY3DLAYER
10
161.94088361150096
20
111.70136595856718
30
2.9999999999877325
 70
     32
  0
VERTEX
  8
MY3DLAYER
10
161.9216876876343
20
111.77832202147714
30
2.9999999999877405
 70
     32
  0
VERTEX
  8
MY3DLAYER
10
161.90451144668378
20
111.85568199985961
30
2.9999999999877476
 70
     32
  0
VERTEX
  8
MY3DLAYER
10
161.88935511020722
20
111.93344595746477
30
2.999999999987754
 70
     32
  0
VERTEX
  8
MY3DLAYER
10
161.87621889976236
20
112.0116139580427
30
2.999999999987759
 70
     32
  0
VERTEX
  8
MY3DLAYER
10
161.86510303690693
20
112.09018606534347
30
2.9999999999877636
 70
     32
  0
VERTEX
  8
MY3DLAYER
10
161.85600774319875
20
112.16916234311725
30
2.9999999999877676
 70
     32
  0
VERTEX
  8
MY3DLAYER
10
161.84893324019552
20
112.24854285511411
30
2.9999999999877702
 70
     32
  0
VERTEX
  8
MY3DLAYER
10
161.84387974945503
20
112.32832766508419
30
2.9999999999877724
 70
     32
  0
VERTEX
  8
MY3DLAYER
10
161.84084749253503
20
112.40851683677757
30
2.9999999999877733
 70
     32
  0
VERTEX
  8
MY3DLAYER
10
161.83983669099328
20
112.48911043394438
30
2.9999999999877742
 70
     32
  0
VERTEX
  8
MY3DLAYER
10
161.84465767672128
20
112.65973152205693
30
2.999999999987772
 70
     32
  0
VERTEX
  8
MY3DLAYER
10
161.8590023373895
20
112.82878508546493
30
2.999999999987765
 70
     32
  0
VERTEX
  8
MY3DLAYER
10
161.88269322822407
20
112.99591794333271
30
2.999999999987755
 70
     32
  0
VERTEX
  8
MY3DLAYER
10
161.9155529044512
20
113.16077691482458
30
2.999999999987742
 70
     32
  0
VERTEX
  8
MY3DLAYER
10
161.95740392129704
20
113.32300881910484
30
2.999999999987725
 70
     32
  0
VERTEX
  8
MY3DLAYER
10
162.00806883398778
20
113.48226047533777
30
2.999999999987704
 70
     32
  0
VERTEX
  8
MY3DLAYER
10
162.06737019774954
20
113.63817870268771
30
2.9999999999876796
 70
     32
  0
VERTEX
  8
MY3DLAYER
10
162.13513056780852
20
113.79041032031895
30
2.999999999987652
 70
     32
  0
VERTEX
  8
MY3DLAYER
10
162.2111724993909
20
113.93860214739578
30
2.999999999987621
 70
     32
  0
VERTEX
  8
MY3DLAYER
10
162.29531854772281
20
114.08240100308254
30
2.999999999987587
 70
     32
  0
VERTEX
  8
MY3DLAYER
10
162.38739126803046
20
114.2214537065435
30
2.999999999987549
 70
     32
  0
VERTEX
  8
MY3DLAYER
10
162.48721321554
20
114.355407076943
30
2.999999999987508
 70
     32
  0
VERTEX
  8
MY3DLAYER
10
162.5946069454776
20
114.4839079334453
30
2.9999999999874642
 70
     32
  0
VERTEX
  8
MY3DLAYER
10
162.70939501306944
20
114.60660309521474
30
2.9999999999874176
 70
     32
  0
VERTEX
  8
MY3DLAYER
10
162.83139997354164
20
114.72313938141563
30
2.9999999999873674
 70
     32
  0
VERTEX
  8
MY3DLAYER
10
162.96044438212044
20
114.83316361121224
30
2.999999999987315
 70
     32
  0
VERTEX
  8
MY3DLAYER
10
163.02051067962216
20
114.4441426538614
30
2.99999999998729
 70
     32
  0
VERTEX
  8
MY3DLAYER
10
163.10809715348938
20
114.06487218221977
30
2.999999999987254
 70
     32
  0
VERTEX
  8
MY3DLAYER
10
163.2200225958889
20
113.69419011454977
30
2.9999999999872085
 70
     32
  0
VERTEX
  8
MY3DLAYER
10
163.35310579898774
20
113.33093436911388
30
2.9999999999871543
 70
     32
  0
VERTEX
  8
MY3DLAYER
10
163.50416555495272
20
112.97394286417449
30
2.999999999987092
 70
     32
  0
VERTEX
  8
MY3DLAYER
10
163.6700206559508
20
112.62205351799412
30
2.999999999987026
 70
     32
  0
VERTEX
  8
MY3DLAYER
10
163.84748989414885
20
112.27410424883519
30
2.999999999986953
 70
     32
  0
VERTEX
  8
MY3DLAYER
10
164.03339206171387
20
111.92893297496016
30
2.999999999986877
 70
     32
  0
VERTEX
  8
MY3DLAYER
10
164.22454595081265
20
111.58537761463145
30
2.999999999986799
 70
     32
  0
VERTEX
  8
MY3DLAYER
10
164.4177703536122
20
111.24227608611157
30
2.99999999998672
 70
     32
  0
VERTEX
  8
MY3DLAYER
10
164.60988406227938
20
110.89846630766293
30
2.9999999999866414
 70
     32
  0
VERTEX
  8
MY3DLAYER
10
164.79770586898113
20
110.55278619754799
30
2.999999999986564
 70
     32
  0
VERTEX
  8
MY3DLAYER
10
164.97805456588432
20
110.20407367402919
30
2.9999999999864904
 70
     32
  0
VERTEX
  8
MY3DLAYER
10
165.14774894515585
20
109.85116665536901
30
2.999999999986421
 70
     32
  0
VERTEX
  8
MY3DLAYER
10
165.30360779896273
20
109.49290305982989
30
2.999999999986357
 70
     32
  0
SEQEND
  0
POLYLINE
 8
Layer0
 66
     1
70
    8
 10
0.0
 20
 0.0
 30
0.0
  0
VERTEX
  8
MY3DLAYER
10
159.13376554941425
20
119.5561061450239
30
2.999999999988883
 70
     32
  0
VERTEX
  8
MY3DLAYER
10
161.08152435114388
20
119.55610614502449
30
2.999999999988087
 70
     32
  0
VERTEX
  8
MY3DLAYER
10
159.73712787200722
20
111.42033800615606
30
2.9999999999886335
 70
     32
  0
VERTEX
  8
MY3DLAYER
10
157.8066486804641
20
111.42033800615549
30
2.999999999989423
 70
     32
  0
VERTEX
  8
MY3DLAYER
10
157.97887973479476
20
112.42027423158666
30
2.9999999999893525
 70
     32
  0
VERTEX
  8
MY3DLAYER
10
157.91004239092803
20
112.42027423158663
30
2.999999999989381
 70
     32
  0
VERTEX
  8
MY3DLAYER
10
157.89005461405375
20
112.38491965546845
30
2.999999999989389
 70
     32
  0
VERTEX
  8
MY3DLAYER
10
157.8689065726336
20
112.34993979351002
30
2.999999999989398
 70
     32
  0
VERTEX
  8
MY3DLAYER
10
157.8466485937217
20
112.31530997065646
30
2.999999999989407
 70
     32
  0
VERTEX
  8
MY3DLAYER
10
157.8233310043723
20
112.28100551185283
30
2.9999999999894165
 70
     32
  0
VERTEX
  8
MY3DLAYER
10
157.79900413163955
20
112.24700174204418
30
2.9999999999894262
 70
     32
  0
VERTEX
  8
MY3DLAYER
10
157.7737183025776
20
112.2132739861756
30
2.9999999999894364
 70
     32
  0
VERTEX
  8
MY3DLAYER
10
157.74752384424067
20
112.1797975691921
30
2.9999999999894476
 70
     32
  0
VERTEX
  8
MY3DLAYER
10
157.72047108368292
20
112.14654781603885
30
2.999999999989458
 70
     32
  0
VERTEX
  8
MY3DLAYER
10
157.69261034795852
20
112.11350005166084
30
2.9999999999894698
 70
     32
  0
VERTEX
  8
MY3DLAYER
10
157.66399196412164
20
112.08062960100312
30
2.9999999999894817
 70
     32
  0
VERTEX
  8
MY3DLAYER
10
157.6346662592265
20
112.04791178901085
30
2.9999999999894937
 70
     32
  0
VERTEX
  8
MY3DLAYER
10
157.60468356032717
20
112.01532194062902
30
2.9999999999895057
 70
     32
  0
VERTEX
  8
MY3DLAYER
10
157.57409419447796
20
111.98283538080271
30
2.999999999989518
 70
     32
  0
VERTEX
  8
MY3DLAYER
10
157.54294848873295
20
111.950427434477
30
2.999999999989531
 70
     32
  0
VERTEX
  8
MY3DLAYER
10
157.5112967701464
20
111.91807342659695
30
2.999999999989544
 70
     32
  0
VERTEX
  8
MY3DLAYER
10
157.4791893657724
20
111.88574868210765
30
2.9999999999895572
 70
     32
  0
VERTEX
  8
MY3DLAYER
10
157.4434311364629
20
111.85686998762013
30
2.9999999999895715
 70
     32
  0
VERTEX
  8
MY3DLAYER
10
157.40724016095473
20
111.82842343987113
30
2.9999999999895866
 70
     32
  0
VERTEX
  8
MY3DLAYER
10
157.37059169375445
20
111.80043387046918
30
2.9999999999896017
 70
     32
  0
VERTEX
  8
MY3DLAYER
10
157.33346098936838
20
111.77292611102271
30
2.9999999999896168
 70
     32
  0
VERTEX
  8
MY3DLAYER
10
157.295823302303
20
111.74592499314022
30
2.999999999989632
 70
     32
  0
VERTEX
  8
MY3DLAYER
10
157.25765388706472
20
111.71945534843022
30
2.999999999989648
 70
     32
  0
VERTEX
  8
MY3DLAYER
10
157.21892799815993
20
111.69354200850117
30
2.9999999999896634
 70
     32
  0
VERTEX
  8
MY3DLAYER
10
157.1796208900951
20
111.66820980496152
30
2.9999999999896794
 70
     32
  0
VERTEX
  8
MY3DLAYER
10
157.1397078173766
20
111.64348356941981
30
2.999999999989696
 70
     32
  0
VERTEX
  8
MY3DLAYER
10
157.09916403451086
20
111.61938813348448
30
2.9999999999897127
 70
     32
  0
VERTEX
  8
MY3DLAYER
10
157.05796479600437
20
111.59594832876402
30
2.999999999989729
 70
     32
  0
VERTEX
  8
MY3DLAYER
10
157.01608535636348
20
111.57318898686695
30
2.9999999999897464
 70
     32
  0
VERTEX
  8
MY3DLAYER
10
156.97350097009462
20
111.5511349394017
30
2.9999999999897637
 70
     32
  0
VERTEX
  8
MY3DLAYER
10
156.9301868917042
20
111.52981101797677
30
2.9999999999897815
 70
     32
  0
VERTEX
  8
MY3DLAYER
10
156.8861183756987
20
111.50924205420066
30
2.9999999999897997
 70
     32
  0
VERTEX
  8
MY3DLAYER
10
156.8412706765845
20
111.4894528796818
30
2.999999999989818
 70
     32
  0
VERTEX
  8
MY3DLAYER
10
156.79562783140366
20
111.47066672758878
30
2.9999999999898366
 70
     32
  0
VERTEX
  8
MY3DLAYER
10
156.74920726832158
20
111.45309042216013
30
2.9999999999898552
 70
     32
  0
VERTEX
  8
MY3DLAYER
10
156.70203352590525
20
111.43672426187172
30
2.9999999999898748
 70
     32
  0
VERTEX
  8
MY3DLAYER
10
156.65413114272164
20
111.42156854519952
30
2.9999999999898943
 70
     32
  0
VERTEX
  8
MY3DLAYER
10
156.60552465733778
20
111.4076235706194
30
2.9999999999899143
 70
     32
  0
VERTEX
  8
MY3DLAYER
10
156.55623860832063
20
111.39488963660739
30
2.9999999999899343
 70
     32
  0
VERTEX
  8
MY3DLAYER
10
156.5062975342372
20
111.38336704163933
30
2.9999999999899547
 70
     32
  0
VERTEX
  8
MY3DLAYER
10
156.45572597365447
20
111.37305608419116
30
2.9999999999899756
 70
     32
  0
VERTEX
  8
MY3DLAYER
10
156.4045484651394
20
111.36395706273882
30
2.9999999999899964
 70
     32
  0
VERTEX
  8
MY3DLAYER
10
156.35278954725908
20
111.35607027575823
30
2.9999999999900173
 70
     32
  0
VERTEX
  8
MY3DLAYER
10
156.3004737585804
20
111.34939602172531
30
2.999999999990039
 70
     32
  0
VERTEX
  8
MY3DLAYER
10
156.24762563767038
20
111.34393459911601
30
2.9999999999900604
 70
     32
  0
VERTEX
  8
MY3DLAYER
10
156.19426972309606
20
111.33968630640624
30
2.999999999990082
 70
     32
  0
VERTEX
  8
MY3DLAYER
10
156.14043055342438
20
111.3366514420719
30
2.9999999999901044
 70
     32
  0
VERTEX
  8
MY3DLAYER
10
156.08613266722236
20
111.33483030458896
30
2.9999999999901266
 70
     32
  0
VERTEX
  8
MY3DLAYER
10
156.03140060305697
20
111.3342231924333
30
2.9999999999901488
 70
     32
  0
VERTEX
  8
MY3DLAYER
10
155.94514169980354
20
111.33563770057015
30
2.9999999999901843
 70
     32
  0
VERTEX
  8
MY3DLAYER
10
155.86085038622053
20
111.33988112381654
30
2.999999999990219
 70
     32
  0
VERTEX
  8
MY3DLAYER
10
155.77847642095068
20
111.34695331042637
30
2.9999999999902522
 70
     32
  0
VERTEX
  8
MY3DLAYER
10
155.69796956263664
20
111.35685410865347
30
2.9999999999902855
 70
     32
  0
VERTEX
  8
MY3DLAYER
10
155.61927956992105
20
111.36958336675164
30
2.9999999999903175
 70
     32
  0
VERTEX
  8
MY3DLAYER
10
155.5423562014467
20
111.38514093297476
30
2.9999999999903486
 70
     32
  0
VERTEX
  8
MY3DLAYER
10
155.4671492158562
20
111.40352665557664
30
2.9999999999903797
 70
     32
  0
VERTEX
  8
MY3DLAYER
10
155.3936083717923
20
111.42474038281111
30
2.99999999999041
 70
     32
  0
VERTEX
  8
MY3DLAYER
10
155.32168342789768
20
111.44878196293202
30
2.999999999990439
 70
     32
  0
VERTEX
  8
MY3DLAYER
10
155.251324142815
20
111.47565124419323
30
2.999999999990468
 70
     32
  0
VERTEX
  8
MY3DLAYER
10
155.182480275187
20
111.50534807484853
30
2.999999999990496
 70
     32
  0
VERTEX
  8
MY3DLAYER
10
155.11510158365633
20
111.53787230315176
30
2.9999999999905236
 70
     32
  0
VERTEX
  8
MY3DLAYER
10
155.04913782686572
20
111.57322377735682
30
2.9999999999905507
 70
     32
  0
VERTEX
  8
MY3DLAYER
10
154.98453876345783
20
111.61140234571745
30
2.9999999999905773
 70
     32
  0
VERTEX
  8
MY3DLAYER
10
154.92125415207536
20
111.65240785648759
30
2.999999999990603
 70
     32
  0
VERTEX
  8
MY3DLAYER
10
154.85923375136105
20
111.69624015792097
30
2.9999999999906284
 70
     32
  0
VERTEX
  8
MY3DLAYER
10
154.79884244743712
20
111.73966823063539
30
2.999999999990653
 70
     32
  0
VERTEX
  8
MY3DLAYER
10
154.74049503684012
20
111.78592474148316
30
2.999999999990677
 70
     32
  0
VERTEX
  8
MY3DLAYER
10
154.68421694645812
20
111.83500960685757
30
2.9999999999907
 70
     32
  0
VERTEX
  8
MY3DLAYER
10
154.6300336031794
20
111.88692274315193
30
2.999999999990722
 70
     32
  0
VERTEX
  8
MY3DLAYER
10
154.57797043389218
20
111.94166406675953
30
2.9999999999907434
 70
     32
  0
VERTEX
  8
MY3DLAYER
10
154.52805286548457
20
111.99923349407369
30
2.999999999990764
 70
     32
  0
VERTEX
  8
MY3DLAYER
10
154.48030632484483
20
112.05963094148768
30
2.9999999999907834
 70
     32
  0
VERTEX
  8
MY3DLAYER
10
154.43475623886115
20
112.12285632539482
30
2.999999999990802
 70
     32
  0
VERTEX
  8
MY3DLAYER
10
154.39142803442172
20
112.1889095621884
30
2.99999999999082
 70
     32
  0
VERTEX
  8
MY3DLAYER
10
154.35034713841475
20
112.25779056826171
30
2.9999999999908367
 70
     32
  0
VERTEX
  8
MY3DLAYER
10
154.31153897772845
20
112.32949926000806
30
2.9999999999908527
 70
     32
  0
VERTEX
  8
MY3DLAYER
10
154.27502897925098
20
112.40403555382072
30
2.9999999999908673
 70
     32
  0
VERTEX
  8
MY3DLAYER
10
154.24084256987055
20
112.48139936609304
30
2.9999999999908815
 70
     32
  0
VERTEX
  8
MY3DLAYER
10
154.20900517647542
20
112.56159061321829
30
2.9999999999908944
 70
     32
  0
VERTEX
  8
MY3DLAYER
10
154.17954222595372
20
112.64460921158977
30
2.9999999999909064
 70
     32
  0
VERTEX
  8
MY3DLAYER
10
154.15247914519367
20
112.73045507760075
30
2.999999999990916
 70
     32
  0
VERTEX
  8
MY3DLAYER
10
154.12501020580197
20
112.81912527745727
30
2.9999999999909273
 70
     32
  0
VERTEX
  8
MY3DLAYER
10
154.10077623126247
20
112.91059992513108
30
2.999999999990937
 70
     32
  0
VERTEX
  8
MY3DLAYER
10
154.07977677427937
20
113.0048535086642
30
2.999999999990946
 70
     32
  0
VERTEX
  8
MY3DLAYER
10
154.06201138755674
20
113.10186051609858
30
2.999999999990953
 70
     32
  0
VERTEX
  8
MY3DLAYER
10
154.04747962379872
20
113.20159543547622
30
2.999999999990959
 70
     32
  0
VERTEX
  8
MY3DLAYER
10
154.03618103570955
20
113.3040327548391
30
2.9999999999909637
 70
     32
  0
VERTEX
  8
MY3DLAYER
10
154.02811517599326
20
113.40914696222917
30
2.9999999999909672
 70
     32
  0
VERTEX
  8
MY3DLAYER
10
154.0232815973541
20
113.51691254568846
30
2.999999999990969
 70
     32
  0
VERTEX
  8
MY3DLAYER
10
154.02167985249613
20
113.62730399325892
30
2.9999999999909694
 70
     32
  0
VERTEX
  8
MY3DLAYER
10
154.02330949412354
20
113.74029579298255
30
2.999999999990969
 70
     32
  0
VERTEX
  8
MY3DLAYER
10
154.02817007494048
20
113.8558624329013
30
2.9999999999909672
 70
     32
  0
VERTEX
  8
MY3DLAYER
10
154.03626114765103
20
113.97397840105721
30
2.999999999990964
 70
     32
  0
VERTEX
  8
MY3DLAYER
10
154.04758226495943
20
114.09461818549221
30
2.9999999999909592
 70
     32
  0
VERTEX
  8
MY3DLAYER
10
154.06213297956978
20
114.2177562742483
30
2.9999999999909535
 70
     32
  0
VERTEX
  8
MY3DLAYER
10
154.0799128441862
20
114.34336715536745
30
2.999999999990946
 70
     32
  0
VERTEX
  8
MY3DLAYER
10
154.1009214115129
20
114.47142531689165
30
2.9999999999909375
 70
     32
  0
VERTEX
  8
MY3DLAYER
10
154.12455713934233
20
114.60554940203896
30
2.999999999990928
 70
     32
  0
VERTEX
  8
MY3DLAYER
10
154.15023582410356
20
114.73646476313353
30
2.9999999999909175
 70
     32
  0
VERTEX
  8
MY3DLAYER
10
154.1779830264555
20
114.86419695456372
30
2.999999999990906
 70
     32
  0
VERTEX
  8
MY3DLAYER
10
154.20782430705714
20
114.98877153071803
30
2.999999999990894
 70
     32
  0
VERTEX
  8
MY3DLAYER
10
154.23978522656734
20
115.11021404598478
30
2.9999999999908806
 70
     32
  0
VERTEX
  8
MY3DLAYER
10
154.273891345645
20
115.22855005475247
30
2.999999999990867
 70
     32
  0
VERTEX
  8
MY3DLAYER
10
154.3101682249491
20
115.34380511140948
30
2.999999999990852
 70
     32
  0
VERTEX
  8
MY3DLAYER
10
154.3486414251385
20
115.45600477034422
30
2.999999999990836
 70
     32
  0
VERTEX
  8
MY3DLAYER
10
154.3893365068722
20
115.56517458594517
30
2.99999999999082
 70
     32
  0
VERTEX
  8
MY3DLAYER
10
154.43227903080907
20
115.67134011260069
30
2.999999999990802
 70
     32
  0
VERTEX
  8
MY3DLAYER
10
154.47749455760803
20
115.77452690469919
30
2.999999999990784
 70
     32
  0
VERTEX
  8
MY3DLAYER
10
154.525008647928
20
115.87476051662915
30
2.9999999999907643
 70
     32
  0
VERTEX
  8
MY3DLAYER
10
154.57484686242796
20
115.97206650277894
30
2.999999999990744
 70
     32
  0
VERTEX
  8
MY3DLAYER
10
154.62703476176677
20
116.06647041753702
30
2.9999999999907225
 70
     32
  0
VERTEX
  8
MY3DLAYER
10
154.68159790660334
20
116.15799781529178
30
2.9999999999907003
 70
     32
  0
VERTEX
  8
MY3DLAYER
10
154.73856185759666
20
116.24667425043162
30
2.999999999990677
 70
     32
  0
VERTEX
  8
MY3DLAYER
10
154.797148417152
20
116.33232606793521
30
2.999999999990653
 70
     32
  0
VERTEX
  8
MY3DLAYER
10
154.85659578712918
20
116.4147962683509
30
2.999999999990629
 70
     32
  0
VERTEX
  8
MY3DLAYER
10
154.91695412736905
20
116.49413538942174
30
2.999999999990604
 70
     32
  0
VERTEX
  8
MY3DLAYER
10
154.97827359771233
20
116.57039396889083
30
2.999999999990579
 70
     32
  0
VERTEX
  8
MY3DLAYER
10
155.0406043579998
20
116.64362254450123
30
2.999999999990554
 70
     32
  0
VERTEX
  8
MY3DLAYER
10
155.10399656807223
20
116.713871653996
30
2.9999999999905276
 70
     32
  0
VERTEX
  8
MY3DLAYER
10
155.16850038777045
20
116.78119183511818
30
2.9999999999905014
 70
     32
  0
VERTEX
  8
MY3DLAYER
10
155.23416597693515
20
116.84563362561086
30
2.9999999999904743
 70
     32
  0
VERTEX
  8
MY3DLAYER
10
155.30104349540713
20
116.90724756321711
30
2.999999999990447
 70
     32
  0
VERTEX
  8
MY3DLAYER
10
155.3691831030272
20
116.96608418568
30
2.999999999990419
 70
     32
  0
VERTEX
  8
MY3DLAYER
10
155.43863495963612
20
117.02219403074257
30
2.999999999990391
 70
     32
  0
VERTEX
  8
MY3DLAYER
10
155.5094492250746
20
117.07562763614789
30
2.999999999990362
 70
     32
  0
VERTEX
  8
MY3DLAYER
10
155.5816760591835
20
117.12643553963903
30
2.999999999990332
 70
     32
  0
VERTEX
  8
MY3DLAYER
10
155.65536562180355
20
117.17466827895907
30
2.9999999999903024
 70
     32
  0
VERTEX
  8
MY3DLAYER
10
155.73056807277553
20
117.22037639185109
30
2.999999999990272
 70
     32
  0
VERTEX
  8
MY3DLAYER
10
155.8073335719402
20
117.26361041605809
30
2.9999999999902403
 70
     32
  0
VERTEX
  8
MY3DLAYER
10
155.88186767058926
20
117.30440820343446
30
2.9999999999902096
 70
     32
  0
VERTEX
  8
MY3DLAYER
10
155.95680525727158
20
117.34275706293572
30
2.999999999990179
 70
     32
  0
VERTEX
  8
MY3DLAYER
10
156.03214640096272
20
117.37863171795674
30
2.9999999999901483
 70
     32
  0
VERTEX
  8
MY3DLAYER
10
156.1078911706382
20
117.4120068918923
30
2.9999999999901172
 70
     32
  0
VERTEX
  8
MY3DLAYER
10
156.18403963527354
20
117.44285730813735
30
2.999999999990086
 70
     32
  0
VERTEX
  8
MY3DLAYER
10
156.26059186384427
20
117.47115769008663
30
2.9999999999900546
 70
     32
  0
VERTEX
  8
MY3DLAYER
10
156.33754792532594
20
117.49688276113504
30
2.9999999999900235
 70
     32
  0
VERTEX
  8
MY3DLAYER
10
156.41490788869407
20
117.52000724467746
30
2.9999999999899916
 70
     32
  0
VERTEX
  8
MY3DLAYER
10
156.49267182292417
20
117.54050586410867
30
2.99999999998996
 70
     32
  0
VERTEX
  8
MY3DLAYER
10
156.57083979699178
20
117.55835334282357
30
2.999999999989928
 70
     32
  0
VERTEX
  8
MY3DLAYER
10
156.64941187987247
20
117.57352440421695
30
2.9999999999898956
 70
     32
  0
VERTEX
  8
MY3DLAYER
10
156.72838814054168
20
117.58599377168372
30
2.999999999989863
 70
     32
  0
VERTEX
  8
MY3DLAYER
10
156.80776864797502
20
117.59573616861871
30
2.999999999989831
 70
     32
  0
VERTEX
  8
MY3DLAYER
10
156.887553471148
20
117.60272631841674
30
2.9999999999897984
 70
     32
  0
VERTEX
  8
MY3DLAYER
10
156.96774267903612
20
117.60693894447267
30
2.999999999989766
 70
     32
  0
VERTEX
  8
MY3DLAYER
10
157.04833634061492
20
117.6083487701814
30
2.9999999999897327
 70
     32
  0
VERTEX
  8
MY3DLAYER
10
157.1060967635378
20
117.60773697556276
30
2.999999999989709
 70
     32
  0
VERTEX
  8
MY3DLAYER
10
157.16299862923944
20
117.60588504064549
30
2.9999999999896856
 70
     32
  0
VERTEX
  8
MY3DLAYER
10
157.21899145599323
20
117.60276813883748
30
2.999999999989663
 70
     32
  0
VERTEX
  8
MY3DLAYER
10
157.2740247620726
20
117.59836144354662
30
2.9999999999896407
 70
     32
  0
VERTEX
  8
MY3DLAYER
10
157.32804806575098
20
117.5926401281809
30
2.9999999999896185
 70
     32
  0
VERTEX
  8
MY3DLAYER
10
157.3810108853018
20
117.58557936614818
30
2.9999999999895968
 70
     32
  0
VERTEX
  8
MY3DLAYER
10
157.4328627389985
20
117.5771543308564
30
2.9999999999895754
 70
     32
  0
VERTEX
  8
MY3DLAYER
10
157.48355314511448
20
117.56734019571348
30
2.9999999999895546
 70
     32
  0
VERTEX
  8
MY3DLAYER
10
157.53303162192316
20
117.55611213412733
30
2.9999999999895346
 70
     32
  0
VERTEX
  8
MY3DLAYER
10
157.58124768769798
20
117.54344531950589
30
2.9999999999895146
 70
     32
  0
VERTEX
  8
MY3DLAYER
10
157.62815086071234
20
117.52931492525708
30
2.999999999989496
 70
     32
  0
VERTEX
  8
MY3DLAYER
10
157.6736906592397
20
117.5136961247888
30
2.9999999999894773
 70
     32
  0
VERTEX
  8
MY3DLAYER
10
157.7178166015535
20
117.496564091509
30
2.999999999989459
 70
     32
  0
VERTEX
  8
MY3DLAYER
10
157.76047820592711
20
117.47789399882555
30
2.9999999999894413
 70
     32
  0
VERTEX
  8
MY3DLAYER
10
157.80162499063397
20
117.45766102014642
30
2.9999999999894245
 70
     32
  0
VERTEX
  8
MY3DLAYER
10
157.84120647394752
20
117.43584032887951
30
2.999999999989409
 70
     32
  0
VERTEX
  8
MY3DLAYER
10
157.879578409003
20
117.41604647189772
30
2.999999999989393
 70
     32
  0
VERTEX
  8
MY3DLAYER
10
157.91711369806356
20
117.39544671068724
30
2.9999999999893774
 70
     32
  0
VERTEX
  8
MY3DLAYER
10
157.9537875830947
20
117.37404075178861
30
2.9999999999893627
 70
     32
  0
VERTEX
  8
MY3DLAYER
10
157.98957530606177
20
117.3518283017423
30
2.9999999999893476
 70
     32
  0
VERTEX
  8
MY3DLAYER
10
158.02445210893023
20
117.32880906708876
30
2.9999999999893334
 70
     32
  0
VERTEX
  8
MY3DLAYER
10
158.05839323366547
20
117.3049827543685
30
2.9999999999893197
 70
     32
  0
VERTEX
  8
MY3DLAYER
10
158.09137392223292
20
117.28034907012196
30
2.9999999999893063
 70
     32
  0
VERTEX
  8
MY3DLAYER
10
158.12336941659797
20
117.25490772088966
30
2.999999999989293
 70
     32
  0
VERTEX
  8
MY3DLAYER
10
158.15435495872603
20
117.22865841321205
30
2.9999999999892806
 70
     32
  0
VERTEX
  8
MY3DLAYER
10
158.18430579058258
20
117.2016008536296
30
2.999999999989268
 70
     32
  0
VERTEX
  8
MY3DLAYER
10
158.21319715413298
20
117.1737347486828
30
2.9999999999892566
 70
     32
  0
VERTEX
  8
MY3DLAYER
10
158.24100429134265
20
117.14505980491214
30
2.999999999989245
 70
     32
  0
VERTEX
  8
MY3DLAYER
10
158.26770244417702
20
117.11557572885805
30
2.9999999999892344
 70
     32
  0
VERTEX
  8
MY3DLAYER
10
158.2932668546015
20
117.08528222706104
30
2.9999999999892237
 70
     32
  0
VERTEX
  8
MY3DLAYER
10
158.3176727645815
20
117.05417900606159
30
2.999999999989214
 70
     32
  0
VERTEX
  8
MY3DLAYER
10
158.34089541608245
20
117.02226577240019
30
2.999999999989204
 70
     32
  0
VERTEX
  8
MY3DLAYER
10
158.36292127283096
20
116.98975479304194
30
2.9999999999891953
 70
     32
  0
VERTEX
  8
MY3DLAYER
10
158.3837863675737
20
116.95689203346927
30
2.9999999999891864
 70
     32
  0
VERTEX
  8
MY3DLAYER
10
158.40354109843054
20
116.92372774799856
30
2.9999999999891784
 70
     32
  0
VERTEX
  8
MY3DLAYER
10
158.4222358635214
20
116.89031219094608
30
2.999999999989171
 70
     32
  0
VERTEX
  8
MY3DLAYER
10
158.43992106096613
20
116.85669561662823
30
2.999999999989164
 70
     32
  0
VERTEX
  8
MY3DLAYER
10
158.45664708888452
20
116.82292827936134
30
2.9999999999891567
 70
     32
  0
VERTEX
  8
MY3DLAYER
10
158.47246434539656
20
116.78906043346176
30
2.9999999999891505
 70
     32
  0
VERTEX
  8
MY3DLAYER
10
158.4874232286221
20
116.75514233324583
30
2.9999999999891442
 70
     32
  0
VERTEX
  8
MY3DLAYER
10
158.50157413668097
20
116.72122423302987
30
2.9999999999891385
 70
     32
  0
VERTEX
  8
MY3DLAYER
10
158.51496746769308
20
116.68735638713031
30
2.999999999989133
 70
     32
  0
VERTEX
  8
MY3DLAYER
10
158.52765361977828
20
116.6535890498634
30
2.999999999989128
 70
     32
  0
VERTEX
  8
MY3DLAYER
10
158.53968299105648
20
116.61997247554555
30
2.999999999989123
 70
     32
  0
VERTEX
  8
MY3DLAYER
10
158.5511059796475
20
116.58655691849307
30
2.999999999989118
 70
     32
  0
VERTEX
  8
MY3DLAYER
10
158.56197298367124
20
116.55339263302236
30
2.9999999999891136
 70
     32
  0
VERTEX
  8
MY3DLAYER
10
158.57233440124756
20
116.52052987344968
30
2.9999999999891096
 70
     32
  0
VERTEX
  8
MY3DLAYER
10
158.58224063049636
20
116.48801889409144
30
2.999999999989105
 70
     32
  0
VERTEX
  8
MY3DLAYER
10
158.63407660728038
20
116.48801889409147
30
2.999999999989084
 70
     32
  0
VERTEX
  8
MY3DLAYER
10
159.13376554941425
20
119.5561061450239
30
2.999999999988883
 70
     32
  0
SEQEND
  0
POLYLINE
 8
Layer0
 66
     1
70
    8
 10
0.0
 20
 0.0
 30
0.0
  0
VERTEX
  8
MY3DLAYER
10
153.898523956939
20
119.84907017986535
30
2.9999999999910236
 70
     32
  0
VERTEX
  8
MY3DLAYER
10
153.92841354096427
20
119.81472954273487
30
2.9999999999910116
 70
     32
  0
VERTEX
  8
MY3DLAYER
10
153.9595192548369
20
119.78180707609795
30
2.999999999990999
 70
     32
  0
VERTEX
  8
MY3DLAYER
10
153.98820008591287
20
119.74769354734147
30
2.999999999990987
 70
     32
  0
VERTEX
  8
MY3DLAYER
10
154.01445618050386
20
119.7124148300224
30
2.9999999999909766
 70
     32
  0
VERTEX
  8
MY3DLAYER
10
154.03828768492164
20
119.67599679769774
30
2.999999999990967
 70
     32
  0
VERTEX
  8
MY3DLAYER
10
154.05969474547794
20
119.63846532392448
30
2.999999999990958
 70
     32
  0
VERTEX
  8
MY3DLAYER
10
154.07867750848445
20
119.59984628225968
30
2.9999999999909504
 70
     32
  0
VERTEX
  8
MY3DLAYER
10
154.09523612025293
20
119.56016554626027
30
2.9999999999909437
 70
     32
  0
VERTEX
  8
MY3DLAYER
10
154.10937072709513
20
119.51944898948331
30
2.999999999990938
 70
     32
  0
VERTEX
  8
MY3DLAYER
10
154.12108147532274
20
119.47772248548577
30
2.999999999990933
 70
     32
  0
VERTEX
  8
MY3DLAYER
10
154.1303685112475
20
119.43501190782467
30
2.999999999990929
 70
     32
  0
VERTEX
  8
MY3DLAYER
10
154.13723198118115
20
119.39134313005702
30
2.9999999999909264
 70
     32
  0
VERTEX
  8
MY3DLAYER
10
154.14167203143538
20
119.3467420257398
30
2.9999999999909246
 70
     32
  0
VERTEX
  8
MY3DLAYER
10
154.14368880832194
20
119.30123446843004
30
2.9999999999909237
 70
     32
  0
VERTEX
  8
MY3DLAYER
10
154.1432824581526
20
119.25484633168473
30
2.9999999999909237
 70
     32
  0
VERTEX
  8
MY3DLAYER
10
154.14045312723906
20
119.20760348906089
30
2.9999999999909246
 70
     32
  0
VERTEX
  8
MY3DLAYER
10
154.13520096189296
20
119.15953181411548
30
2.999999999990924
 70
     32
  0
VERTEX
  8
MY3DLAYER
10
154.12772508366754
20
119.11449307685763
30
2.9999999999909273
 70
     32
  0
VERTEX
  8
MY3DLAYER
10
154.1182078579393
20
119.06988491515936
30
2.9999999999909313
 70
     32
  0
VERTEX
  8
MY3DLAYER
10
154.10662349413093
20
119.02573238532219
30
2.999999999990936
 70
     32
  0
VERTEX
  8
MY3DLAYER
10
154.0929462016651
20
118.98206054364759
30
2.9999999999909415
 70
     32
  0
VERTEX
  8
MY3DLAYER
10
154.07715018996433
20
118.93889444643708
30
2.999999999990948
 70
     32
  0
VERTEX
  8
MY3DLAYER
10
154.05920966845144
20
118.89625914999212
30
2.9999999999909552
 70
     32
  0
VERTEX
  8
MY3DLAYER
10
154.03909884654894
20
118.85417971061422
30
2.9999999999909637
 70
     32
  0
VERTEX
  8
MY3DLAYER
10
154.01679193367957
20
118.81268118460488
30
2.9999999999909726
 70
     32
  0
VERTEX
  8
MY3DLAYER
10
153.99226313926593
20
118.77178862826558
30
2.9999999999909828
 70
     32
  0
VERTEX
  8
MY3DLAYER
10
153.9654866727307
20
118.73152709789782
30
2.9999999999909934
 70
     32
  0
VERTEX
  8
MY3DLAYER
10
153.93643674349647
20
118.6919216498031
30
2.9999999999910054
 70
     32
  0
VERTEX
  8
MY3DLAYER
10
153.90508756098595
20
118.6529973402829
30
2.9999999999910183
 70
     32
  0
VERTEX
  8
MY3DLAYER
10
153.87141333462176
20
118.61477922563873
30
2.999999999991032
 70
     32
  0
VERTEX
  8
MY3DLAYER
10
153.83538827382657
20
118.57729236217203
30
2.9999999999910467
 70
     32
  0
VERTEX
  8
MY3DLAYER
10
153.79698658802297
20
118.54056180618439
30
2.9999999999910623
 70
     32
  0
VERTEX
  8
MY3DLAYER
10
153.75618248663366
20
118.50461261397723
30
2.999999999991079
 70
     32
  0
VERTEX
  8
MY3DLAYER
10
153.71396099560258
20
118.47330336289836
30
2.9999999999910965
 70
     32
  0
VERTEX
  8
MY3DLAYER
10
153.67130725374255
20
118.44401243508172
30
2.9999999999911138
 70
     32
  0
VERTEX
  8
MY3DLAYER
10
153.6281964424042
20
118.41674005522026
30
2.9999999999911315
 70
     32
  0
VERTEX
  8
MY3DLAYER
10
153.5846037429381
20
118.39148644800703
30
2.9999999999911493
 70
     32
  0
VERTEX
  8
MY3DLAYER
10
153.54050433669477
20
118.368251838135
30
2.9999999999911675
 70
     32
  0
VERTEX
  8
MY3DLAYER
10
153.4958734050248
20
118.3470364502972
30
2.9999999999911857
 70
     32
  0
VERTEX
  8
MY3DLAYER
10
153.45068612927872
20
118.32784050918666
30
2.999999999991204
 70
     32
  0
VERTEX
  8
MY3DLAYER
10
153.4049176908071
20
118.31066423949636
30
2.9999999999912226
 70
     32
  0
VERTEX
  8
MY3DLAYER
10
153.3585432709605
20
118.29550786591933
30
2.9999999999912417
 70
     32
  0
VERTEX
  8
MY3DLAYER
10
153.31153805108946
20
118.28237161314857
30
2.9999999999912608
 70
     32
  0
VERTEX
  8
MY3DLAYER
10
153.26387721254457
20
118.27125570587711
30
2.9999999999912803
 70
     32
  0
VERTEX
  8
MY3DLAYER
10
153.21553593667636
20
118.26216036879795
30
2.9999999999913003
 70
     32
  0
VERTEX
  8
MY3DLAYER
10
153.16648940483537
20
118.25508582660409
30
2.9999999999913203
 70
     32
  0
VERTEX
  8
MY3DLAYER
10
153.1167127983722
20
118.25003230398853
30
2.9999999999913403
 70
     32
  0
VERTEX
  8
MY3DLAYER
10
153.0661812986374
20
118.24700002564434
30
2.999999999991361
 70
     32
  0
VERTEX
  8
MY3DLAYER
10
153.01487008698146
20
118.24598921626448
30
2.9999999999913824
 70
     32
  0
VERTEX
  8
MY3DLAYER
10
152.96376698390236
20
118.24700470967495
30
2.9999999999914033
 70
     32
  0
VERTEX
  8
MY3DLAYER
10
152.9138763096806
20
118.25006778973834
30
2.9999999999914237
 70
     32
  0
VERTEX
  8
MY3DLAYER
10
152.86519799534065
20
118.25520335620256
30
2.9999999999914433
 70
     32
  0
VERTEX
  8
MY3DLAYER
10
152.81773197190697
20
118.26243630881561
30
2.999999999991463
 70
     32
  0
VERTEX
  8
MY3DLAYER
10
152.771478170404
20
118.2717915473254
30
2.999999999991482
 70
     32
  0
VERTEX
  8
MY3DLAYER
10
152.7264365218563
20
118.2832939714799
30
2.9999999999915
 70
     32
  0
VERTEX
  8
MY3DLAYER
10
152.68260695728824
20
118.29696848102704
30
2.999999999991518
 70
     32
  0
VERTEX
  8
MY3DLAYER
10
152.63998940772436
20
118.31283997571474
30
2.999999999991535
 70
     32
  0
VERTEX
  8
MY3DLAYER
10
152.59858380418913
20
118.33093335529098
30
2.9999999999915525
 70
     32
  0
VERTEX
  8
MY3DLAYER
10
152.55839007770695
20
118.35127351950368
30
2.999999999991569
 70
     32
  0
VERTEX
  8
MY3DLAYER
10
152.51940815930237
20
118.3738853681008
30
2.9999999999915845
 70
     32
  0
VERTEX
  8
MY3DLAYER
10
152.48163797999985
20
118.39879380083029
30
2.9999999999916
 70
     32
  0
VERTEX
  8
MY3DLAYER
10
152.44507947082383
20
118.42602371744005
30
2.999999999991615
 70
     32
  0
VERTEX
  8
MY3DLAYER
10
152.40973256279878
20
118.4556000176781
30
2.99999999999163
 70
     32
  0
VERTEX
  8
MY3DLAYER
10
152.3755971869492
20
118.48754760129229
30
2.9999999999916436
 70
     32
  0
VERTEX
  8
MY3DLAYER
10
152.34267327429953
20
118.52189136803065
30
2.999999999991657
 70
     32
  0
VERTEX
  8
MY3DLAYER
10
152.3115673096068
20
118.55480602106387
30
2.9999999999916698
 70
     32
  0
VERTEX
  8
MY3DLAYER
10
152.28288626115344
20
118.58887990380104
30
2.9999999999916818
 70
     32
  0
VERTEX
  8
MY3DLAYER
10
152.2566299826277
20
118.62406283487265
30
2.999999999991692
 70
     32
  0
VERTEX
  8
MY3DLAYER
10
152.23279832771786
20
118.66030463290917
30
2.999999999991702
 70
     32
  0
VERTEX
  8
MY3DLAYER
10
152.21139115011218
20
118.69755511654111
30
2.9999999999917106
 70
     32
  0
VERTEX
  8
MY3DLAYER
10
152.19240830349892
20
118.73576410439902
30
2.9999999999917186
 70
     32
  0
VERTEX
  8
MY3DLAYER
10
152.17584964156643
20
118.77488141511337
30
2.9999999999917253
 70
     32
  0
VERTEX
  8
MY3DLAYER
10
152.1617150180029
20
118.81485686731465
30
2.9999999999917315
 70
     32
  0
VERTEX
  8
MY3DLAYER
10
152.15000428649665
20
118.85564027963336
30
2.999999999991736
 70
     32
  0
VERTEX
  8
MY3DLAYER
10
152.1407173007359
20
118.89718147070005
30
2.99999999999174
 70
     32
  0
VERTEX
  8
MY3DLAYER
10
152.13385391440897
20
118.93943025914515
30
2.9999999999917426
 70
     32
  0
VERTEX
  8
MY3DLAYER
10
152.1294139812041
20
118.9823364635992
30
2.9999999999917444
 70
     32
  0
VERTEX
  8
MY3DLAYER
10
152.12739735480957
20
119.0258499026927
30
2.999999999991745
 70
     32
  0
VERTEX
  8
MY3DLAYER
10
152.1278038889137
20
119.06992039505614
30
2.999999999991745
 70
     32
  0
VERTEX
  8
MY3DLAYER
10
152.1306334372047
20
119.11449775932005
30
2.999999999991744
 70
     32
  0
VERTEX
  8
MY3DLAYER
10
152.13588585337084
20
119.15953181411489
30
2.9999999999917417
 70
     32
  0
VERTEX
  8
MY3DLAYER
10
152.14355552252542
20
119.20760348906028
30
2.9999999999917417
 70
     32
  0
VERTEX
  8
MY3DLAYER
10
152.1536209082787
20
119.25484633168413
30
2.9999999999917373
 70
     32
  0
VERTEX
  8
MY3DLAYER
10
152.1660571794403
20
119.30123446842946
30
2.9999999999917324
 70
     32
  0
VERTEX
  8
MY3DLAYER
10
152.18083950481974
20
119.34674202573923
30
2.999999999991726
 70
     32
  0
VERTEX
  8
MY3DLAYER
10
152.19794305322654
20
119.39134313005644
30
2.9999999999917195
 70
     32
  0
VERTEX
  8
MY3DLAYER
10
152.2173429934703
20
119.43501190782412
30
2.999999999991711
 70
     32
  0
VERTEX
  8
MY3DLAYER
10
152.2390144943606
20
119.4777224854852
30
2.999999999991702
 70
     32
  0
VERTEX
  8
MY3DLAYER
10
152.2629327247069
20
119.51944898948277
30
2.9999999999916924
 70
     32
  0
VERTEX
  8
MY3DLAYER
10
152.2890728533188
20
119.56016554625973
30
2.9999999999916818
 70
     32
  0
VERTEX
  8
MY3DLAYER
10
152.31741004900584
20
119.59984628225915
30
2.99999999999167
 70
     32
  0
VERTEX
  8
MY3DLAYER
10
152.3479194805776
20
119.638465323924
30
2.999999999991658
 70
     32
  0
VERTEX
  8
MY3DLAYER
10
152.38057631684362
20
119.67599679769724
30
2.9999999999916445
 70
     32
  0
VERTEX
  8
MY3DLAYER
10
152.41535572661343
20
119.71241483002191
30
2.9999999999916307
 70
     32
  0
VERTEX
  8
MY3DLAYER
10
152.45223287869658
20
119.74769354734102
30
2.999999999991615
 70
     32
  0
VERTEX
  8
MY3DLAYER
10
152.49118294190265
20
119.78180707609752
30
2.9999999999915996
 70
     32
  0
VERTEX
  8
MY3DLAYER
10
152.5321810850412
20
119.81472954273444
30
2.9999999999915827
 70
     32
  0
VERTEX
  8
MY3DLAYER
10
152.57156227352093
20
119.84907017986494
30
2.9999999999915667
 70
     32
  0
VERTEX
  8
MY3DLAYER
10
152.61210787970947
20
119.88100891893521
30
2.9999999999915503
 70
     32
  0
VERTEX
  8
MY3DLAYER
10
152.65376698085487
20
119.91057147611262
30
2.999999999991533
 70
     32
  0
VERTEX
  8
MY3DLAYER
10
152.6964886542052
20
119.93778356756457
30
2.9999999999915157
 70
     32
  0
VERTEX
  8
MY3DLAYER
10
152.7402219770086
20
119.96267090945845
30
2.9999999999914975
 70
     32
  0
VERTEX
  8
MY3DLAYER
10
152.78491602651303
20
119.98525921796164
30
2.9999999999914793
 70
     32
  0
VERTEX
  8
MY3DLAYER
10
152.83051987996663
20
120.00557420924153
30
2.9999999999914606
 70
     32
  0
VERTEX
  8
MY3DLAYER
10
152.87698261461748
20
120.02364159946552
30
2.9999999999914415
 70
     32
  0
VERTEX
  8
MY3DLAYER
10
152.92425330771363
20
120.03948710480095
30
2.9999999999914224
 70
     32
  0
VERTEX
  8
MY3DLAYER
10
152.97228103650318
20
120.05313644141529
30
2.999999999991403
 70
     32
  0
VERTEX
  8
MY3DLAYER
10
153.02101487823415
20
120.06461532547583
30
2.999999999991383
 70
     32
  0
VERTEX
  8
MY3DLAYER
10
153.07040391015468
20
120.07394947315004
30
2.9999999999913625
 70
     32
  0
VERTEX
  8
MY3DLAYER
10
153.1203972095128
20
120.08116460060526
30
2.999999999991342
 70
     32
  0
VERTEX
  8
MY3DLAYER
10
153.17094385355654
20
120.0862864240089
30
2.999999999991321
 70
     32
  0
VERTEX
  8
MY3DLAYER
10
153.22199291953407
20
120.08934065952833
30
2.9999999999913007
 70
     32
  0
VERTEX
  8
MY3DLAYER
10
153.2734934846934
20
120.09035302333098
30
2.9999999999912794
 70
     32
  0
VERTEX
  8
MY3DLAYER
10
153.32459191520297
20
120.08934065952837
30
2.9999999999912585
 70
     32
  0
VERTEX
  8
MY3DLAYER
10
153.37445182111335
20
120.08628642400895
30
2.999999999991238
 70
     32
  0
VERTEX
  8
MY3DLAYER
10
153.42304814549607
20
120.08116460060536
30
2.9999999999912186
 70
     32
  0
VERTEX
  8
MY3DLAYER
10
153.47035583142255
20
120.07394947315015
30
2.999999999991199
 70
     32
  0
VERTEX
  8
MY3DLAYER
10
153.51634982196424
20
120.06461532547598
30
2.9999999999911804
 70
     32
  0
VERTEX
  8
MY3DLAYER
10
153.56100506019263
20
120.05313644141545
30
2.999999999991162
 70
     32
  0
VERTEX
  8
MY3DLAYER
10
153.60429648917912
20
120.03948710480117
30
2.9999999999911444
 70
     32
  0
VERTEX
  8
MY3DLAYER
10
153.64619905199524
20
120.02364159946575
30
2.999999999991127
 70
     32
  0
VERTEX
  8
MY3DLAYER
10
153.6866876917124
20
120.0055742092418
30
2.9999999999911107
 70
     32
  0
VERTEX
  8
MY3DLAYER
10
153.72573735140207
20
119.98525921796193
30
2.9999999999910947
 70
     32
  0
VERTEX
  8
MY3DLAYER
10
153.76332297413572
20
119.96267090945875
30
2.999999999991079
 70
     32
  0
VERTEX
  8
MY3DLAYER
10
153.79941950298476
20
119.9377835675649
30
2.9999999999910645
 70
     32
  0
VERTEX
  8
MY3DLAYER
10
153.8340018810207
20
119.91057147611296
30
2.9999999999910503
 70
     32
  0
VERTEX
  8
MY3DLAYER
10
153.86704505131493
20
119.88100891893558
30
2.999999999991037
 70
     32
  0
VERTEX
  8
MY3DLAYER
10
153.898523956939
20
119.84907017986535
30
2.9999999999910236
 70
     32
  0
SEQEND
  0
POLYLINE
 8
Layer0
 66
     1
70
    8
 10
0.0
 20
 0.0
 30
0.0
  0
VERTEX
  8
MY3DLAYER
10
136.1920872761187
20
119.55610614501707
30
2.999999999998264
 70
     32
  0
VERTEX
  8
MY3DLAYER
10
141.74217878020173
20
119.55610614501872
30
2.9999999999959948
 70
     32
  0
VERTEX
  8
MY3DLAYER
10
141.46655544229466
20
117.95308712429966
30
2.9999999999961044
 70
     32
  0
VERTEX
  8
MY3DLAYER
10
137.88122139593733
20
117.9530871242986
30
2.9999999999975704
 70
     32
  0
VERTEX
  8
MY3DLAYER
10
137.62287666939537
20
116.29823169872924
30
2.9999999999976756
 70
     32
  0
VERTEX
  8
MY3DLAYER
10
140.84591493640588
20
116.2812317585352
30
2.999999999996358
 70
     32
  0
VERTEX
  8
MY3DLAYER
10
140.5702915984988
20
114.69549120649243
30
2.9999999999964704
 70
     32
  0
VERTEX
  8
MY3DLAYER
10
137.3469745176295
20
114.69549120649148
30
2.9999999999977884
 70
     32
  0
VERTEX
  8
MY3DLAYER
10
136.81272763932165
20
111.42033800614922
30
2.9999999999980074
 70
     32
  0
VERTEX
  8
MY3DLAYER
10
134.8476915104259
20
111.42033800614864
30
2.999999999998811
 70
     32
  0
VERTEX
  8
MY3DLAYER
10
136.1920872761187
20
119.55610614501707
30
2.999999999998264
 70
     32
  0
SEQEND
  0
POLYLINE
 8
Layer0
 66
     1
70
    8
 10
0.0
 20
 0.0
 30
0.0
  0
VERTEX
  8
MY3DLAYER
10
142.4662128538665
20
119.55610614501893
30
2.9999999999956986
 70
     32
  0
VERTEX
  8
MY3DLAYER
10
144.41397037139717
20
119.55610614501953
30
2.999999999994902
 70
     32
  0
VERTEX
  8
MY3DLAYER
10
143.06957460570436
20
111.4203380061511
30
2.999999999995449
 70
     32
  0
VERTEX
  8
MY3DLAYER
10
141.12181708817369
20
111.4203380061505
30
2.9999999999962457
 70
     32
  0
VERTEX
  8
MY3DLAYER
10
142.4662128538665
20
119.55610614501893
30
2.9999999999956986
 70
     32
  0
SEQEND
  0
POLYLINE
 8
Layer0
 66
     1
70
    8
 10
0.0
 20
 0.0
 30
0.0
  0
VERTEX
  8
MY3DLAYER
10
172.06103432403663
20
119.64222110143815
30
2.999999999983597
 70
     32
  0
VERTEX
  8
MY3DLAYER
10
173.7674479113525
20
119.64222110143866
30
2.9999999999828995
 70
     32
  0
VERTEX
  8
MY3DLAYER
10
176.18061610483682
20
114.9538359330455
30
2.999999999981909
 70
     32
  0
VERTEX
  8
MY3DLAYER
10
176.2497302649196
20
114.95383593304551
30
2.9999999999818807
 70
     32
  0
VERTEX
  8
MY3DLAYER
10
177.02532221495198
20
119.64222110143965
30
2.9999999999815676
 70
     32
  0
VERTEX
  8
MY3DLAYER
10
178.99007952998886
20
119.64222110144023
30
2.999999999980764
 70
     32
  0
VERTEX
  8
MY3DLAYER
10
177.62840486755346
20
111.50673163374186
30
2.999999999981318
 70
     32
  0
VERTEX
  8
MY3DLAYER
10
175.97382868390935
20
111.50673163374137
30
2.9999999999819944
 70
     32
  0
VERTEX
  8
MY3DLAYER
10
173.5263809400435
20
116.2121168850183
30
2.9999999999829945
 70
     32
  0
VERTEX
  8
MY3DLAYER
10
173.47454496325952
20
116.21211688501828
30
2.999999999983016
 70
     32
  0
VERTEX
  8
MY3DLAYER
10
172.68167482992837
20
111.50673163374037
30
2.9999999999833404
 70
     32
  0
VERTEX
  8
MY3DLAYER
10
170.71663927178773
20
111.50673163373982
30
2.9999999999841442
 70
     32
  0
VERTEX
  8
MY3DLAYER
10
172.06103432403663
20
119.64222110143815
30
2.999999999983597
 70
     32
  0
SEQEND
  0
POLYLINE
 8
Layer0
 66
     1
70
    8
 10
0.0
 20
 0.0
 30
0.0
  0
VERTEX
  8
MY3DLAYER
10
184.9307279210153
20
119.57811778031493
30
2.9999999999783347
 70
     32
  0
VERTEX
  8
MY3DLAYER
10
185.00585952506162
20
119.55610614503162
30
2.999999999978304
 70
     32
  0
VERTEX
  8
MY3DLAYER
10
185.08261277305758
20
119.52944678170077
30
2.9999999999782725
 70
     32
  0
VERTEX
  8
MY3DLAYER
10
185.15774498325248
20
119.50119497970432
30
2.999999999978242
 70
     32
  0
VERTEX
  8
MY3DLAYER
10
185.23125688720486
20
119.47137624054943
30
2.9999999999782117
 70
     32
  0
VERTEX
  8
MY3DLAYER
10
185.30314921647349
20
119.44001606574328
30
2.9999999999781823
 70
     32
  0
VERTEX
  8
MY3DLAYER
10
185.37342270261692
20
119.40713995679306
30
2.9999999999781535
 70
     32
  0
VERTEX
  8
MY3DLAYER
10
185.44207807719383
20
119.37277341520594
30
2.9999999999781255
 70
     32
  0
VERTEX
  8
MY3DLAYER
10
185.50911607176283
20
119.3369419424891
30
2.999999999978098
 70
     32
  0
VERTEX
  8
MY3DLAYER
10
185.57453741788254
20
119.29967104014973
30
2.9999999999780713
 70
     32
  0
VERTEX
  8
MY3DLAYER
10
185.6383428471117
20
119.26098620969502
30
2.999999999978045
 70
     32
  0
VERTEX
  8
MY3DLAYER
10
185.70053309100888
20
119.22091295263213
30
2.99999999997802
 70
     32
  0
VERTEX
  8
MY3DLAYER
10
185.76110888113269
20
119.17947677046823
30
2.9999999999779954
 70
     32
  0
VERTEX
  8
MY3DLAYER
10
185.82007094904185
20
119.13670316471054
30
2.9999999999779683
 70
     32
  0
VERTEX
  8
MY3DLAYER
10
185.87742002629494
20
119.09261763686622
30
2.9999999999779448
 70
     32
  0
VERTEX
  8
MY3DLAYER
10
185.93315684445062
20
119.04724568844243
30
2.999999999977922
 70
     32
  0
VERTEX
  8
MY3DLAYER
10
185.98728213506755
20
119.00061282094639
30
2.9999999999779
 70
     32
  0
VERTEX
  8
MY3DLAYER
10
186.03979662970434
20
118.95274453588526
30
2.999999999977878
 70
     32
  0
VERTEX
  8
MY3DLAYER
10
186.09373379862325
20
118.9034648722603
30
2.9999999999778564
 70
     32
  0
VERTEX
  8
MY3DLAYER
10
186.1456798551262
20
118.85259742581792
30
2.999999999977835
 70
     32
  0
VERTEX
  8
MY3DLAYER
10
186.19565954470667
20
118.80016703318303
30
2.999999999977814
 70
     32
  0
VERTEX
  8
MY3DLAYER
10
186.24369761285834
20
118.7461985309805
30
2.999999999977795
 70
     32
  0
VERTEX
  8
MY3DLAYER
10
186.28981880507482
20
118.69071675583523
30
2.999999999977776
 70
     32
  0
VERTEX
  8
MY3DLAYER
10
186.33404786684955
20
118.63374654437209
30
2.999999999977758
 70
     32
  0
VERTEX
  8
MY3DLAYER
10
186.37640954367626
20
118.57531273321592
30
2.999999999977741
 70
     32
  0
VERTEX
  8
MY3DLAYER
10
186.41692858104838
20
118.51544015899168
30
2.999999999977724
 70
     32
  0
VERTEX
  8
MY3DLAYER
10
186.4556297244596
20
118.4541536583242
30
2.9999999999777085
 70
     32
  0
VERTEX
  8
MY3DLAYER
10
186.49253771940351
20
118.3914780678384
30
2.999999999977693
 70
     32
  0
VERTEX
  8
MY3DLAYER
10
186.52767731137357
20
118.32743822415915
30
2.9999999999776787
 70
     32
  0
VERTEX
  8
MY3DLAYER
10
186.56107324586347
20
118.26205896391134
30
2.999999999977665
 70
     32
  0
VERTEX
  8
MY3DLAYER
10
186.59275026836676
20
118.19536512371982
30
2.999999999977652
 70
     32
  0
VERTEX
  8
MY3DLAYER
10
186.622733124377
20
118.12738154020953
30
2.99999999997764
 70
     32
  0
VERTEX
  8
MY3DLAYER
10
186.65104655938777
20
118.05813305000532
30
2.999999999977628
 70
     32
  0
VERTEX
  8
MY3DLAYER
10
186.67771531889267
20
117.98764448973206
30
2.9999999999776175
 70
     32
  0
VERTEX
  8
MY3DLAYER
10
186.70256273879545
20
117.91593702264971
30
2.9999999999776072
 70
     32
  0
VERTEX
  8
MY3DLAYER
10
186.72541275278775
20
117.84301545980142
30
2.9999999999775975
 70
     32
  0
VERTEX
  8
MY3DLAYER
10
186.74629100304506
20
117.76888010948686
30
2.999999999977589
 70
     32
  0
VERTEX
  8
MY3DLAYER
10
186.76522313174277
20
117.6935312800058
30
2.9999999999775815
 70
     32
  0
VERTEX
  8
MY3DLAYER
10
186.78223478105642
20
117.61696927965794
30
2.9999999999775744
 70
     32
  0
VERTEX
  8
MY3DLAYER
10
186.7973515931614
20
117.53919441674294
30
2.999999999977568
 70
     32
  0
VERTEX
  8
MY3DLAYER
10
186.81059921023322
20
117.4602069995606
30
2.999999999977563
 70
     32
  0
VERTEX
  8
MY3DLAYER
10
186.8220032744473
20
117.38000733641057
30
2.999999999977558
 70
     32
  0
VERTEX
  8
MY3DLAYER
10
186.83158942797908
20
117.29859573559256
30
2.9999999999775544
 70
     32
  0
VERTEX
  8
MY3DLAYER
10
186.83938331300408
20
117.21597250540631
30
2.9999999999775513
 70
     32
  0
VERTEX
  8
MY3DLAYER
10
186.8454105716977
20
117.13213795415153
30
2.9999999999775486
 70
     32
  0
VERTEX
  8
MY3DLAYER
10
186.8496968462354
20
117.04709239012794
30
2.999999999977547
 70
     32
  0
VERTEX
  8
MY3DLAYER
10
186.85226777879268
20
116.96083612163523
30
2.999999999977546
 70
     32
  0
VERTEX
  8
MY3DLAYER
10
186.85314901154496
20
116.87336945697312
30
2.9999999999775455
 70
     32
  0
VERTEX
  8
MY3DLAYER
10
186.8523661866677
20
116.78469270444134
30
2.999999999977546
 70
     32
  0
VERTEX
  8
MY3DLAYER
10
186.84994494633634
20
116.6948061723396
30
2.9999999999775464
 70
     32
  0
VERTEX
  8
MY3DLAYER
10
184.88518763129943
20
116.69480617233901
30
2.9999999999783498
 70
     32
  0
VERTEX
  8
MY3DLAYER
10
184.88782007644247
20
116.73338152246524
30
2.999999999978349
 70
     32
  0
VERTEX
  8
MY3DLAYER
10
184.88928760641681
20
116.77152680912289
30
2.9999999999783484
 70
     32
  0
VERTEX
  8
MY3DLAYER
10
184.88964121504014
20
116.80921690285466
30
2.999999999978348
 70
     32
  0
VERTEX
  8
MY3DLAYER
10
184.88893189613
20
116.84642667420317
30
2.9999999999783484
 70
     32
  0
VERTEX
  8
MY3DLAYER
10
184.8872106435041
20
116.88313099371108
30
2.9999999999783493
 70
     32
  0
VERTEX
  8
MY3DLAYER
10
184.88452845098
20
116.91930473192099
30
2.99999999997835
 70
     32
  0
VERTEX
  8
MY3DLAYER
10
184.88093631237535
20
116.95492275937556
30
2.999999999978352
 70
     32
  0
VERTEX
  8
MY3DLAYER
10
184.87648522150775
20
116.98995994661745
30
2.9999999999783538
 70
     32
  0
VERTEX
  8
MY3DLAYER
10
184.8712261721949
20
117.02439116418931
30
2.999999999978356
 70
     32
  0
VERTEX
  8
MY3DLAYER
10
184.8652101582543
20
117.05819128263374
30
2.999999999978358
 70
     32
  0
VERTEX
  8
MY3DLAYER
10
184.8584881735037
20
117.09133517249344
30
2.9999999999783613
 70
     32
  0
VERTEX
  8
MY3DLAYER
10
184.85111121176064
20
117.12379770431097
30
2.999999999978364
 70
     32
  0
VERTEX
  8
MY3DLAYER
10
184.84313026684276
20
117.15555374862907
30
2.999999999978367
 70
     32
  0
VERTEX
  8
MY3DLAYER
10
184.83459633256768
20
117.1865781759903
30
2.9999999999783706
 70
     32
  0
VERTEX
  8
MY3DLAYER
10
184.82556040275307
20
117.21684585693738
30
2.9999999999783746
 70
     32
  0
VERTEX
  8
MY3DLAYER
10
184.81607347121653
20
117.2463316620129
30
2.999999999978378
 70
     32
  0
VERTEX
  8
MY3DLAYER
10
184.80901221743702
20
117.27824957970495
30
2.9999999999783813
 70
     32
  0
VERTEX
  8
MY3DLAYER
10
184.80078970628205
20
117.30938360242361
30
2.999999999978385
 70
     32
  0
VERTEX
  8
MY3DLAYER
10
184.79145640902735
20
117.33975914806935
30
2.999999999978389
 70
     32
  0
VERTEX
  8
MY3DLAYER
10
184.78106279694867
20
117.36940163454265
30
2.999999999978393
 70
     32
  0
VERTEX
  8
MY3DLAYER
10
184.76965934132173
20
117.398336479744
30
2.9999999999783973
 70
     32
  0
VERTEX
  8
MY3DLAYER
10
184.7572965134223
20
117.42658910157385
30
2.999999999978402
 70
     32
  0
VERTEX
  8
MY3DLAYER
10
184.74402478452606
20
117.45418491793271
30
2.999999999978408
 70
     32
  0
VERTEX
  8
MY3DLAYER
10
184.72989462590874
20
117.48114934672103
30
2.9999999999784137
 70
     32
  0
VERTEX
  8
MY3DLAYER
10
184.71495650884614
20
117.50750780583931
30
2.9999999999784195
 70
     32
  0
VERTEX
  8
MY3DLAYER
10
184.69926090461402
20
117.53328571318802
30
2.999999999978426
 70
     32
  0
VERTEX
  8
MY3DLAYER
10
184.682858284488
20
117.55850848666765
30
2.9999999999784333
 70
     32
  0
VERTEX
  8
MY3DLAYER
10
184.66579911974392
20
117.58320154417866
30
2.99999999997844
 70
     32
  0
VERTEX
  8
MY3DLAYER
10
184.6481338816575
20
117.60739030362154
30
2.999999999978447
 70
     32
  0
VERTEX
  8
MY3DLAYER
10
184.6299130415044
20
117.63110018289676
30
2.9999999999784546
 70
     32
  0
VERTEX
  8
MY3DLAYER
10
184.61118707056048
20
117.6543565999048
30
2.999999999978462
 70
     32
  0
VERTEX
  8
MY3DLAYER
10
184.5920064401014
20
117.67718497254614
30
2.99999999997847
 70
     32
  0
VERTEX
  8
MY3DLAYER
10
184.5693721679778
20
117.6965641879078
30
2.9999999999784794
 70
     32
  0
VERTEX
  8
MY3DLAYER
10
184.5466641986367
20
117.71586923471916
30
2.9999999999784888
 70
     32
  0
VERTEX
  8
MY3DLAYER
10
184.52380649387294
20
117.73502414186945
30
2.999999999978498
 70
     32
  0
VERTEX
  8
MY3DLAYER
10
184.50072301548136
20
117.75395293824786
30
2.9999999999785074
 70
     32
  0
VERTEX
  8
MY3DLAYER
10
184.47733772525675
20
117.77257965274363
30
2.9999999999785167
 70
     32
  0
VERTEX
  8
MY3DLAYER
10
184.45357458499396
20
117.790828314246
30
2.999999999978527
 70
     32
  0
VERTEX
  8
MY3DLAYER
10
184.42935755648787
20
117.80862295164414
30
2.9999999999785367
 70
     32
  0
VERTEX
  8
MY3DLAYER
10
184.40461060153334
20
117.82588759382728
30
2.999999999978547
 70
     32
  0
VERTEX
  8
MY3DLAYER
10
184.3792576819251
20
117.84254626968463
30
2.999999999978557
 70
     32
  0
VERTEX
  8
MY3DLAYER
10
184.3532227594581
20
117.85852300810544
30
2.999999999978568
 70
     32
  0
VERTEX
  8
MY3DLAYER
10
184.3264297959271
20
117.8737418379789
30
2.9999999999785785
 70
     32
  0
VERTEX
  8
MY3DLAYER
10
184.298802753127
20
117.88812678819423
30
2.99999999997859
 70
     32
  0
VERTEX
  8
MY3DLAYER
10
184.2702655928526
20
117.90160188764065
30
2.9999999999786016
 70
     32
  0
VERTEX
  8
MY3DLAYER
10
184.24074227689874
20
117.91409116520735
30
2.999999999978614
 70
     32
  0
VERTEX
  8
MY3DLAYER
10
184.21015676706025
20
117.92551864978358
30
2.999999999978626
 70
     32
  0
VERTEX
  8
MY3DLAYER
10
184.178433025132
20
117.93580837025854
30
2.9999999999786393
 70
     32
  0
VERTEX
  8
MY3DLAYER
10
184.14894246698066
20
117.94833144412752
30
2.9999999999786513
 70
     32
  0
VERTEX
  8
MY3DLAYER
10
184.11864393575283
20
117.96004604453388
30
2.9999999999786637
 70
     32
  0
VERTEX
  8
MY3DLAYER
10
184.08753743353867
20
117.97095224505156
30
2.999999999978676
 70
     32
  0
VERTEX
  8
MY3DLAYER
10
184.05562296242837
20
117.98105011925446
30
2.9999999999786895
 70
     32
  0
VERTEX
  8
MY3DLAYER
10
184.02290052451212
20
117.99033974071645
30
2.999999999978703
 70
     32
  0
VERTEX
  8
MY3DLAYER
10
183.98937012188006
20
117.99882118301144
30
2.9999999999787166
 70
     32
  0
VERTEX
  8
MY3DLAYER
10
183.95503175662233
20
118.00649451971331
30
2.9999999999787303
 70
     32
  0
VERTEX
  8
MY3DLAYER
10
183.91988543082914
20
118.013359824396
30
2.999999999978745
 70
     32
  0
VERTEX
  8
MY3DLAYER
10
183.88393114659067
20
118.01941717063339
30
2.9999999999787597
 70
     32
  0
VERTEX
  8
MY3DLAYER
10
183.847168905997
20
118.02466663199937
30
2.9999999999787748
 70
     32
  0
VERTEX
  8
MY3DLAYER
10
183.8095987111384
20
118.02910828206782
30
2.9999999999787903
 70
     32
  0
VERTEX
  8
MY3DLAYER
10
183.771220564105
20
118.03274219441266
30
2.999999999978806
 70
     32
  0
VERTEX
  8
MY3DLAYER
10
183.73203446698693
20
118.0355684426078
30
2.999999999978822
 70
     32
  0
VERTEX
  8
MY3DLAYER
10
183.69204042187442
20
118.0375871002271
30
2.9999999999788383
 70
     32
  0
VERTEX
  8
MY3DLAYER
10
183.65123843085766
20
118.0387982408445
30
2.999999999978855
 70
     32
  0
VERTEX
  8
MY3DLAYER
10
183.6096284960267
20
118.03920193803386
30
2.999999999978872
 70
     32
  0
VERTEX
  8
MY3DLAYER
10
183.53550769317377
20
118.03799084329562
30
2.999999999978902
 70
     32
  0
VERTEX
  8
MY3DLAYER
10
183.46184301295327
20
118.03435741262986
30
2.999999999978932
 70
     32
  0
VERTEX
  8
MY3DLAYER
10
183.38868471762416
20
118.02830142635995
30
2.999999999978962
 70
     32
  0
VERTEX
  8
MY3DLAYER
10
183.31608306944545
20
118.01982266480931
30
2.999999999978992
 70
     32
  0
VERTEX
  8
MY3DLAYER
10
183.24408833067614
20
118.00892090830132
30
2.9999999999790212
 70
     32
  0
VERTEX
  8
MY3DLAYER
10
183.17275076357518
20
117.99559593715938
30
2.9999999999790505
 70
     32
  0
VERTEX
  8
MY3DLAYER
10
183.10212063040157
20
117.97984753170687
30
2.9999999999790794
 70
     32
  0
VERTEX
  8
MY3DLAYER
10
183.03224819341426
20
117.96167547226719
30
2.9999999999791083
 70
     32
  0
VERTEX
  8
MY3DLAYER
10
182.96318371487226
20
117.94107953916372
30
2.9999999999791362
 70
     32
  0
VERTEX
  8
MY3DLAYER
10
182.89497745703457
20
117.91805951271986
30
2.9999999999791642
 70
     32
  0
VERTEX
  8
MY3DLAYER
10
182.8276796821601
20
117.892615173259
30
2.9999999999791918
 70
     32
  0
VERTEX
  8
MY3DLAYER
10
182.76134065250795
20
117.86474630110452
30
2.999999999979219
 70
     32
  0
VERTEX
  8
MY3DLAYER
10
182.696010630337
20
117.8344526765798
30
2.9999999999792455
 70
     32
  0
VERTEX
  8
MY3DLAYER
10
182.63173987790628
20
117.80173408000829
30
2.9999999999792717
 70
     32
  0
VERTEX
  8
MY3DLAYER
10
182.56857865747477
20
117.76659029171331
30
2.9999999999792974
 70
     32
  0
VERTEX
  8
MY3DLAYER
10
182.50657723130146
20
117.7290210920183
30
2.9999999999793228
 70
     32
  0
VERTEX
  8
MY3DLAYER
10
182.4427429441741
20
117.68922998820523
30
2.999999999979349
 70
     32
  0
VERTEX
  8
MY3DLAYER
10
182.38049683950422
20
117.64742049090032
30
2.9999999999793743
 70
     32
  0
VERTEX
  8
MY3DLAYER
10
182.31981402548647
20
117.60359238544339
30
2.999999999979399
 70
     32
  0
VERTEX
  8
MY3DLAYER
10
182.26066961031552
20
117.55774545717425
30
2.999999999979423
 70
     32
  0
VERTEX
  8
MY3DLAYER
10
182.20303870218615
20
117.50987949143266
30
2.9999999999794467
 70
     32
  0
VERTEX
  8
MY3DLAYER
10
182.14689640929294
20
117.45999427355842
30
2.9999999999794698
 70
     32
  0
VERTEX
  8
MY3DLAYER
10
182.09221783983062
20
117.40808958889133
30
2.9999999999794924
 70
     32
  0
VERTEX
  8
MY3DLAYER
10
182.03897810199396
20
117.35416522277119
30
2.9999999999795137
 70
     32
  0
VERTEX
  8
MY3DLAYER
10
181.98715230397755
20
117.29822096053778
30
2.9999999999795355
 70
     32
  0
VERTEX
  8
MY3DLAYER
10
181.93671555397617
20
117.2402565875309
30
2.999999999979556
 70
     32
  0
VERTEX
  8
MY3DLAYER
10
181.8876429601844
20
117.18027188909033
30
2.999999999979576
 70
     32
  0
VERTEX
  8
MY3DLAYER
10
181.83990963079705
20
117.11826665055588
30
2.9999999999795954
 70
     32
  0
VERTEX
  8
MY3DLAYER
10
181.79349067400875
20
117.05424065726733
30
2.999999999979614
 70
     32
  0
VERTEX
  8
MY3DLAYER
10
181.7483611980142
20
116.9881936945645
30
2.9999999999796327
 70
     32
  0
VERTEX
  8
MY3DLAYER
10
181.7044963110081
20
116.92012554778715
30
2.9999999999796505
 70
     32
  0
VERTEX
  8
MY3DLAYER
10
181.66187112118516
20
116.85003600227509
30
2.9999999999796683
 70
     32
  0
VERTEX
  8
MY3DLAYER
10
181.62066488514608
20
116.77508902819741
30
2.9999999999796847
 70
     32
  0
VERTEX
  8
MY3DLAYER
10
181.5810740392754
20
116.69887884234268
30
2.999999999979701
 70
     32
  0
VERTEX
  8
MY3DLAYER
10
181.5430986588191
20
116.62135505850499
30
2.9999999999797167
 70
     32
  0
VERTEX
  8
MY3DLAYER
10
181.5067388190233
20
116.54246729047841
30
2.9999999999797313
 70
     32
  0
VERTEX
  8
MY3DLAYER
10
181.47199459513396
20
116.46216515205703
30
2.9999999999797455
 70
     32
  0
VERTEX
  8
MY3DLAYER
10
181.43886606239715
20
116.38039825703491
30
2.9999999999797593
 70
     32
  0
VERTEX
  8
MY3DLAYER
10
181.40735329605891
20
116.29711621920617
30
2.999999999979772
 70
     32
  0
VERTEX
  8
MY3DLAYER
10
181.3774563713652
20
116.21226865236484
30
2.999999999979784
 70
     32
  0
VERTEX
  8
MY3DLAYER
10
181.34917536356215
20
116.12580517030507
30
2.9999999999797957
 70
     32
  0
VERTEX
  8
MY3DLAYER
10
181.32251034789573
20
116.03767538682088
30
2.999999999979807
 70
     32
  0
VERTEX
  8
MY3DLAYER
10
181.297461399612
20
115.94782891570638
30
2.999999999979817
 70
     32
  0
VERTEX
  8
MY3DLAYER
10
181.27402859395698
20
115.85621537075565
30
2.9999999999798264
 70
     32
  0
VERTEX
  8
MY3DLAYER
10
181.25221200617668
20
115.76278436576276
30
2.9999999999798352
 70
     32
  0
VERTEX
  8
MY3DLAYER
10
181.23201171151715
20
115.66748551452181
30
2.9999999999798437
 70
     32
  0
VERTEX
  8
MY3DLAYER
10
181.2134277852244
20
115.57026843082689
30
2.9999999999798512
 70
     32
  0
VERTEX
  8
MY3DLAYER
10
181.19646030254452
20
115.47108272847203
30
2.9999999999798583
 70
     32
  0
VERTEX
  8
MY3DLAYER
10
181.18131101899004
20
115.37210199397342
30
2.999999999979864
 70
     32
  0
VERTEX
  8
MY3DLAYER
10
181.1681816399095
20
115.27551686027824
30
2.99999999997987
 70
     32
  0
VERTEX
  8
MY3DLAYER
10
181.15707216530288
20
115.18130251082727
30
2.999999999979874
 70
     32
  0
VERTEX
  8
MY3DLAYER
10
181.1479825951702
20
115.08943412906117
30
2.999999999979878
 70
     32
  0
VERTEX
  8
MY3DLAYER
10
181.14091292951144
20
114.99988689842075
30
2.9999999999798805
 70
     32
  0
VERTEX
  8
MY3DLAYER
10
181.13586316832664
20
114.91263600234664
30
2.9999999999798828
 70
     32
  0
VERTEX
  8
MY3DLAYER
10
181.13283331161574
20
114.82765662427961
30
2.999999999979884
 70
     32
  0
VERTEX
  8
MY3DLAYER
10
181.1318233593788
20
114.7449239476604
30
2.9999999999798845
 70
     32
  0
VERTEX
  8
MY3DLAYER
10
181.1328333116158
20
114.66441315592971
30
2.999999999979884
 70
     32
  0
VERTEX
  8
MY3DLAYER
10
181.1358631683267
20
114.58609943252827
30
2.9999999999798828
 70
     32
  0
VERTEX
  8
MY3DLAYER
10
181.1409129295116
20
114.50995796089681
30
2.9999999999798805
 70
     32
  0
VERTEX
  8
MY3DLAYER
10
181.1479825951704
20
114.43596392447604
30
2.999999999979878
 70
     32
  0
VERTEX
  8
MY3DLAYER
10
181.15707216530313
20
114.3640925067067
30
2.999999999979874
 70
     32
  0
VERTEX
  8
MY3DLAYER
10
181.1681816399098
20
114.29431889102949
30
2.9999999999798694
 70
     32
  0
VERTEX
  8
MY3DLAYER
10
181.18131101899039
20
114.22661826088516
30
2.999999999979864
 70
     32
  0
VERTEX
  8
MY3DLAYER
10
181.19646030254492
20
114.16096579971445
30
2.999999999979858
 70
     32
  0
VERTEX
  8
MY3DLAYER
10
181.21343247381904
20
114.09733963973157
30
2.9999999999798512
 70
     32
  0
VERTEX
  8
MY3DLAYER
10
181.23204721371013
20
114.03573436346612
30
2.9999999999798432
 70
     32
  0
VERTEX
  8
MY3DLAYER
10
181.2523295686959
20
113.97614982983181
30
2.999999999979835
 70
     32
  0
VERTEX
  8
MY3DLAYER
10
181.2743045852541
20
113.91858589774232
30
2.999999999979826
 70
     32
  0
VERTEX
  8
MY3DLAYER
10
181.29799730986244
20
113.86304242611132
30
2.999999999979816
 70
     32
  0
VERTEX
  8
MY3DLAYER
10
181.32343278899853
20
113.80951927385252
30
2.999999999979806
 70
     32
  0
VERTEX
  8
MY3DLAYER
10
181.3506360691402
20
113.75801629987959
30
2.999999999979795
 70
     32
  0
VERTEX
  8
MY3DLAYER
10
181.37963219676507
20
113.70853336310624
30
2.9999999999797833
 70
     32
  0
VERTEX
  8
MY3DLAYER
10
181.41044621835087
20
113.66107032244618
30
2.9999999999797704
 70
     32
  0
VERTEX
  8
MY3DLAYER
10
181.44310318037532
20
113.61562703681305
30
2.999999999979757
 70
     32
  0
VERTEX
  8
MY3DLAYER
10
181.47762812931614
20
113.57220336512057
30
2.999999999979743
 70
     32
  0
VERTEX
  8
MY3DLAYER
10
181.51404611165094
20
113.53079916628243
30
2.999999999979728
 70
     32
  0
VERTEX
  8
MY3DLAYER
10
181.55238217385755
20
113.49141429921234
30
2.9999999999797122
 70
     32
  0
VERTEX
  8
MY3DLAYER
10
181.59266136241362
20
113.45404862282396
30
2.999999999979696
 70
     32
  0
VERTEX
  8
MY3DLAYER
10
181.63490872379685
20
113.41870199603098
30
2.9999999999796785
 70
     32
  0
VERTEX
  8
MY3DLAYER
10
181.67914930448492
20
113.38537427774709
30
2.9999999999796603
 70
     32
  0
VERTEX
  8
MY3DLAYER
10
181.72500491548425
20
113.35406502666828
30
2.9999999999796416
 70
     32
  0
VERTEX
  8
MY3DLAYER
10
181.77209703198088
20
113.32477409885165
30
2.9999999999796225
 70
     32
  0
VERTEX
  8
MY3DLAYER
10
181.82045099934643
20
113.29750171899022
30
2.9999999999796025
 70
     32
  0
VERTEX
  8
MY3DLAYER
10
181.87009216295263
20
113.272248111777
30
2.999999999979582
 70
     32
  0
VERTEX
  8
MY3DLAYER
10
181.92104586817112
20
113.24901350190503
30
2.9999999999795612
 70
     32
  0
VERTEX
  8
MY3DLAYER
10
181.97333746037356
20
113.22779811406724
30
2.9999999999795404
 70
     32
  0
VERTEX
  8
MY3DLAYER
10
182.02699228493165
20
113.20860217295673
30
2.999999999979518
 70
     32
  0
VERTEX
  8
MY3DLAYER
10
182.08203568721697
20
113.19142590326646
30
2.999999999979496
 70
     32
  0
VERTEX
  8
MY3DLAYER
10
182.1384930126013
20
113.17626952968943
30
2.9999999999794724
 70
     32
  0
VERTEX
  8
MY3DLAYER
10
182.1963896064562
20
113.16313327691874
30
2.999999999979449
 70
     32
  0
VERTEX
  8
MY3DLAYER
10
182.25575081415337
20
113.15201736964731
30
2.9999999999794245
 70
     32
  0
VERTEX
  8
MY3DLAYER
10
182.31660198106454
20
113.14292203256817
30
2.9999999999793996
 70
     32
  0
VERTEX
  8
MY3DLAYER
10
182.37896845256128
20
113.13584749037436
30
2.9999999999793743
 70
     32
  0
VERTEX
  8
MY3DLAYER
10
182.4428755740153
20
113.13079396775885
30
2.999999999979348
 70
     32
  0
VERTEX
  8
MY3DLAYER
10
182.50834869079824
20
113.12776168941468
30
2.9999999999793214
 70
     32
  0
VERTEX
  8
MY3DLAYER
10
182.57541314828185
20
113.12675088003486
30
2.999999999979294
 70
     32
  0
VERTEX
  8
MY3DLAYER
10
182.62026264633357
20
113.12715302440394
30
2.9999999999792757
 70
     32
  0
VERTEX
  8
MY3DLAYER
10
182.66435331950856
20
113.12834221237482
30
2.9999999999792575
 70
     32
  0
VERTEX
  8
MY3DLAYER
10
182.70773585645986
20
113.13029257624297
30
2.9999999999792397
 70
     32
  0
VERTEX
  8
MY3DLAYER
10
182.75046094584073
20
113.1329782483038
30
2.9999999999792224
 70
     32
  0
VERTEX
  8
MY3DLAYER
10
182.79257927630425
20
113.13637336085283
30
2.999999999979205
 70
     32
  0
VERTEX
  8
MY3DLAYER
10
182.83414153650364
20
113.1404520461855
30
2.999999999979188
 70
     32
  0
VERTEX
  8
MY3DLAYER
10
182.87519841509203
20
113.14518843659731
30
2.9999999999791713
 70
     32
  0
VERTEX
  8
MY3DLAYER
10
182.9158006007226
20
113.1505566643837
30
2.9999999999791545
 70
     32
  0
VERTEX
  8
MY3DLAYER
10
182.9559987820485
20
113.15653086184012
30
2.9999999999791385
 70
     32
  0
VERTEX
  8
MY3DLAYER
10
182.99584364772292
20
113.16308516126205
30
2.999999999979122
 70
     32
  0
VERTEX
  8
MY3DLAYER
10
183.03538588639898
20
113.170193694945
30
2.999999999979106
 70
     32
  0
VERTEX
  8
MY3DLAYER
10
183.07467618672987
20
113.17783059518433
30
2.9999999999790896
 70
     32
  0
VERTEX
  8
MY3DLAYER
10
183.11376523736874
20
113.18596999427561
30
2.999999999979074
 70
     32
  0
VERTEX
  8
MY3DLAYER
10
183.15270372696875
20
113.19458602451425
30
2.999999999979058
 70
     32
  0
VERTEX
  8
MY3DLAYER
10
183.1915423441831
20
113.20365281819572
30
2.9999999999790417
 70
     32
  0
VERTEX
  8
MY3DLAYER
10
183.23033177766487
20
113.21314450761552
30
2.999999999979026
 70
     32
  0
VERTEX
  8
MY3DLAYER
10
183.268907132703
20
113.2232370248932
30
2.9999999999790106
 70
     32
  0
VERTEX
  8
MY3DLAYER
10
183.3070524336783
20
113.23410724523193
30
2.9999999999789946
 70
     32
  0
VERTEX
  8
MY3DLAYER
10
183.34474255050642
20
113.24573063529013
30
2.9999999999789795
 70
     32
  0
VERTEX
  8
MY3DLAYER
10
183.38195235310292
20
113.25808266172625
30
2.9999999999789644
 70
     32
  0
VERTEX
  8
MY3DLAYER
10
183.41865671138342
20
113.27113879119874
30
2.9999999999789493
 70
     32
  0
VERTEX
  8
MY3DLAYER
10
183.4548304952635
20
113.28487449036594
30
2.999999999978934
 70
     32
  0
VERTEX
  8
MY3DLAYER
10
183.49044857465873
20
113.29926522588636
30
2.99999999997892
 70
     32
  0
VERTEX
  8
MY3DLAYER
10
183.52548581948474
20
113.3142864644184
30
2.9999999999789053
 70
     32
  0
VERTEX
  8
MY3DLAYER
10
183.5599170996571
20
113.32991367262049
30
2.999999999978891
 70
     32
  0
VERTEX
  8
MY3DLAYER
10
183.5937172850914
20
113.34612231715107
30
2.9999999999788773
 70
     32
  0
VERTEX
  8
MY3DLAYER
10
183.62686124570325
20
113.36288786466854
30
2.999999999978864
 70
     32
  0
VERTEX
  8
MY3DLAYER
10
183.65932385140823
20
113.38018578183133
30
2.9999999999788507
 70
     32
  0
VERTEX
  8
MY3DLAYER
10
183.69107997212194
20
113.39799153529788
30
2.999999999978838
 70
     32
  0
VERTEX
  8
MY3DLAYER
10
183.72210447775993
20
113.4162805917266
30
2.999999999978825
 70
     32
  0
VERTEX
  8
MY3DLAYER
10
183.75237223823788
20
113.43502841777592
30
2.9999999999788125
 70
     32
  0
VERTEX
  8
MY3DLAYER
10
183.78185812347132
20
113.4542104801043
30
2.9999999999788005
 70
     32
  0
VERTEX
  8
MY3DLAYER
10
183.81377904832223
20
113.47684324981546
30
2.9999999999787876
 70
     32
  0
VERTEX
  8
MY3DLAYER
10
183.84492181424662
20
113.49952931169248
30
2.9999999999787748
 70
     32
  0
VERTEX
  8
MY3DLAYER
10
183.87531102042618
20
113.52231876412519
30
2.9999999999787623
 70
     32
  0
VERTEX
  8
MY3DLAYER
10
183.90497126604285
20
113.54526170550346
30
2.9999999999787503
 70
     32
  0
VERTEX
  8
MY3DLAYER
10
183.93392715027852
20
113.56840823421713
30
2.9999999999787383
 70
     32
  0
VERTEX
  8
MY3DLAYER
10
183.96220327231495
20
113.59180844865605
30
2.9999999999787272
 70
     32
  0
VERTEX
  8
MY3DLAYER
10
183.98982423133407
20
113.61551244721007
30
2.9999999999787157
 70
     32
  0
VERTEX
  8
MY3DLAYER
10
184.0168146265177
20
113.63957032826902
30
2.9999999999787046
 70
     32
  0
VERTEX
  8
MY3DLAYER
10
184.04319905704762
20
113.66403219022276
30
2.999999999978694
 70
     32
  0
VERTEX
  8
MY3DLAYER
10
184.0690021221058
20
113.68894813146112
30
2.9999999999786833
 70
     32
  0
VERTEX
  8
MY3DLAYER
10
184.094248420874
20
113.71436825037397
30
2.999999999978673
 70
     32
  0
VERTEX
  8
MY3DLAYER
10
184.11896255253416
20
113.74034264535116
30
2.999999999978663
 70
     32
  0
VERTEX
  8
MY3DLAYER
10
184.143169116268
20
113.76692141478252
30
2.999999999978653
 70
     32
  0
VERTEX
  8
MY3DLAYER
10
184.16689271125753
20
113.79415465705789
30
2.9999999999786433
 70
     32
  0
VERTEX
  8
MY3DLAYER
10
184.19015793668447
20
113.82209247056714
30
2.9999999999786335
 70
     32
  0
VERTEX
  8
MY3DLAYER
10
184.21298939173073
20
113.85078495370013
30
2.9999999999786247
 70
     32
  0
VERTEX
  8
MY3DLAYER
10
184.23521083869426
20
113.8800720278052
30
2.9999999999786153
 70
     32
  0
VERTEX
  8
MY3DLAYER
10
184.25664625307
20
113.90976051336209
30
2.9999999999786064
 70
     32
  0
VERTEX
  8
MY3DLAYER
10
184.27732135645985
20
113.9398507771952
30
2.999999999978598
 70
     32
  0
VERTEX
  8
MY3DLAYER
10
184.29726187046558
20
113.97034318612894
30
2.99999999997859
 70
     32
  0
VERTEX
  8
MY3DLAYER
10
184.31649351668904
20
114.00123810698776
30
2.999999999978582
 70
     32
  0
VERTEX
  8
MY3DLAYER
10
184.33504201673202
20
114.03253590659598
30
2.9999999999785745
 70
     32
  0
VERTEX
  8
MY3DLAYER
10
184.3529330921964
20
114.06423695177804
30
2.9999999999785674
 70
     32
  0
VERTEX
  8
MY3DLAYER
10
184.37019246468395
20
114.09634160935835
30
2.9999999999785603
 70
     32
  0
VERTEX
  8
MY3DLAYER
10
184.38684585579654
20
114.12885024616133
30
2.999999999978553
 70
     32
  0
VERTEX
  8
MY3DLAYER
10
184.40291898713593
20
114.16176322901137
30
2.999999999978547
 70
     32
  0
VERTEX
  8
MY3DLAYER
10
184.41843758030404
20
114.19508092473285
30
2.9999999999785407
 70
     32
  0
VERTEX
  8
MY3DLAYER
10
184.4334273569026
20
114.22880370015021
30
2.999999999978534
 70
     32
  0
VERTEX
  8
MY3DLAYER
10
184.44791403853344
20
114.26293192208784
30
2.9999999999785287
 70
     32
  0
VERTEX
  8
MY3DLAYER
10
184.46192334679844
20
114.29746595737014
30
2.9999999999785225
 70
     32
  0
VERTEX
  8
MY3DLAYER
10
184.4754810032994
20
114.33240617282152
30
2.999999999978517
 70
     32
  0
VERTEX
  8
MY3DLAYER
10
184.48861272963813
20
114.36775293526638
30
2.999999999978512
 70
     32
  0
VERTEX
  8
MY3DLAYER
10
186.47092789796525
20
114.36775293526696
30
2.9999999999777014
 70
     32
  0
VERTEX
  8
MY3DLAYER
10
186.45092607063637
20
114.30007989899205
30
2.9999999999777094
 70
     32
  0
VERTEX
  8
MY3DLAYER
10
186.42968562883112
20
114.23276374022312
30
2.9999999999777183
 70
     32
  0
VERTEX
  8
MY3DLAYER
10
186.40718152607184
20
114.1657534762205
30
2.999999999977727
 70
     32
  0
VERTEX
  8
MY3DLAYER
10
186.38338871588078
20
114.09899812424442
30
2.999999999977737
 70
     32
  0
VERTEX
  8
MY3DLAYER
10
186.35828215178026
20
114.03244670155513
30
2.999999999977747
 70
     32
  0
VERTEX
  8
MY3DLAYER
10
186.3318367872926
20
113.96604822541292
30
2.999999999977758
 70
     32
  0
VERTEX
  8
MY3DLAYER
10
186.30402757593998
20
113.89975171307805
30
2.9999999999777693
 70
     32
  0
VERTEX
  8
MY3DLAYER
10
186.27482947124483
20
113.83350618181078
30
2.9999999999777813
 70
     32
  0
VERTEX
  8
MY3DLAYER
10
186.2442174267294
20
113.76726064887139
30
2.9999999999777938
 70
     32
  0
VERTEX
  8
MY3DLAYER
10
186.21216639591594
20
113.70096413152011
30
2.999999999977807
 70
     32
  0
VERTEX
  8
MY3DLAYER
10
186.17865133232678
20
113.63456564701721
30
2.999999999977821
 70
     32
  0
VERTEX
  8
MY3DLAYER
10
186.1436471894842
20
113.56801421262301
30
2.999999999977835
 70
     32
  0
VERTEX
  8
MY3DLAYER
10
186.10712892091055
20
113.5012588455977
30
2.9999999999778497
 70
     32
  0
VERTEX
  8
MY3DLAYER
10
186.06907148012806
20
113.4342485632016
30
2.9999999999778657
 70
     32
  0
VERTEX
  8
MY3DLAYER
10
186.02944982065904
20
113.36693238269493
30
2.9999999999778817
 70
     32
  0
VERTEX
  8
MY3DLAYER
10
185.9882388960258
20
113.29925932133798
30
2.999999999977898
 70
     32
  0
VERTEX
  8
MY3DLAYER
10
185.94542410187927
20
113.23483200225965
30
2.999999999977916
 70
     32
  0
VERTEX
  8
MY3DLAYER
10
185.90104143125308
20
113.17085719484028
30
2.999999999977934
 70
     32
  0
VERTEX
  8
MY3DLAYER
10
185.85514173374315
20
113.10738567719226
30
2.9999999999779527
 70
     32
  0
VERTEX
  8
MY3DLAYER
10
185.8077758589457
20
113.04446822742783
30
2.999999999977972
 70
     32
  0
VERTEX
  8
MY3DLAYER
10
185.75899465645662
20
112.98215562365941
30
2.9999999999779923
 70
     32
  0
VERTEX
  8
MY3DLAYER
10
185.70884897587212
20
112.92049864399927
30
2.9999999999780127
 70
     32
  0
VERTEX
  8
MY3DLAYER
10
185.6573896667882
20
112.85954806655977
30
2.9999999999780336
 70
     32
  0
VERTEX
  8
MY3DLAYER
10
185.6046675788009
20
112.79935466945327
30
2.9999999999780553
 70
     32
  0
VERTEX
  8
MY3DLAYER
10
185.55073356150632
20
112.73996923079206
30
2.9999999999780775
 70
     32
  0
VERTEX
  8
MY3DLAYER
10
185.49563846450053
20
112.68144252868848
30
2.999999999978101
 70
     32
  0
VERTEX
  8
MY3DLAYER
10
185.43943313737955
20
112.62382534125489
30
2.999999999978124
 70
     32
  0
VERTEX
  8
MY3DLAYER
10
185.38216842973947
20
112.56716844660359
30
2.9999999999781477
 70
     32
  0
VERTEX
  8
MY3DLAYER
10
185.3238951911764
20
112.51152262284694
30
2.9999999999781717
 70
     32
  0
VERTEX
  8
MY3DLAYER
10
185.2646642712863
20
112.45693864809726
30
2.9999999999781957
 70
     32
  0
VERTEX
  8
MY3DLAYER
10
185.20452651966534
20
112.40346730046689
30
2.99999999997822
 70
     32
  0
VERTEX
  8
MY3DLAYER
10
185.14353278590949
20
112.35115935806814
30
2.999999999978245
 70
     32
  0
VERTEX
  8
MY3DLAYER
10
185.07829648510952
20
112.29702173438275
30
2.9999999999782716
 70
     32
  0
VERTEX
  8
MY3DLAYER
10
185.01187739611822
20
112.24447438980191
30
2.9999999999782987
 70
     32
  0
VERTEX
  8
MY3DLAYER
10
184.9443002121749
20
112.1934921313271
30
2.9999999999783267
 70
     32
  0
VERTEX
  8
MY3DLAYER
10
184.87558962651903
20
112.14404976595989
30
2.9999999999783546
 70
     32
  0
VERTEX
  8
MY3DLAYER
10
184.80577033238998
20
112.09612210070185
30
2.999999999978383
 70
     32
  0
VERTEX
  8
MY3DLAYER
10
184.73486702302708
20
112.04968394255451
30
2.9999999999784124
 70
     32
  0
VERTEX
  8
MY3DLAYER
10
184.66290439166983
20
112.00471009851944
30
2.9999999999784417
 70
     32
  0
VERTEX
  8
MY3DLAYER
10
184.58990713155754
20
111.96117537559815
30
2.9999999999784714
 70
     32
  0
VERTEX
  8
MY3DLAYER
10
184.51589993592958
20
111.91905458079219
30
2.9999999999785016
 70
     32
  0
VERTEX
  8
MY3DLAYER
10
184.44090749802544
20
111.87832252110319
30
2.9999999999785323
 70
     32
  0
VERTEX
  8
MY3DLAYER
10
184.36495451108442
20
111.8389540035326
30
2.9999999999785634
 70
     32
  0
VERTEX
  8
MY3DLAYER
10
184.28806566834598
20
111.80092383508205
30
2.999999999978595
 70
     32
  0
VERTEX
  8
MY3DLAYER
10
184.21026566304943
20
111.764206822753
30
2.9999999999786264
 70
     32
  0
VERTEX
  8
MY3DLAYER
10
184.13157918843422
20
111.72877777354708
30
2.999999999978659
 70
     32
  0
VERTEX
  8
MY3DLAYER
10
184.05203093773974
20
111.6946114944658
30
2.9999999999786913
 70
     32
  0
VERTEX
  8
MY3DLAYER
10
183.97164560420538
20
111.66168279251072
30
2.999999999978724
 70
     32
  0
VERTEX
  8
MY3DLAYER
10
183.88701121853367
20
111.63037667103973
30
2.9999999999787588
 70
     32
  0
VERTEX
  8
MY3DLAYER
10
183.80116379158554
20
111.60109458776702
30
2.999999999978794
 70
     32
  0
VERTEX
  8
MY3DLAYER
10
183.71410348221374
20
111.5738359509662
30
2.9999999999788294
 70
     32
  0
VERTEX
  8
MY3DLAYER
10
183.62583044927098
20
111.54860016891078
30
2.9999999999788654
 70
     32
  0
VERTEX
  8
MY3DLAYER
10
183.53634485160995
20
111.52538664987436
30
2.999999999978902
 70
     32
  0
VERTEX
  8
MY3DLAYER
10
183.44564684808353
20
111.50419480213053
30
2.999999999978939
 70
     32
  0
VERTEX
  8
MY3DLAYER
10
183.35373659754424
20
111.48502403395281
30
2.9999999999789764
 70
     32
  0
VERTEX
  8
MY3DLAYER
10
183.260614258845
20
111.46787375361477
30
2.999999999979015
 70
     32
  0
VERTEX
  8
MY3DLAYER
10
183.16627999083846
20
111.45274336939
30
2.9999999999790536
 70
     32
  0
VERTEX
  8
MY3DLAYER
10
183.07073395237734
20
111.43963228955208
30
2.9999999999790927
 70
     32
  0
VERTEX
  8
MY3DLAYER
10
182.9739763023144
20
111.42853992237457
30
2.9999999999791322
 70
     32
  0
VERTEX
  8
MY3DLAYER
10
182.87600719950242
20
111.419465676131
30
2.999999999979172
 70
     32
  0
VERTEX
  8
MY3DLAYER
10
182.77682680279403
20
111.41240895909498
30
2.9999999999792126
 70
     32
  0
VERTEX
  8
MY3DLAYER
10
182.676435271042
20
111.40736917954008
30
2.9999999999792535
 70
     32
  0
VERTEX
  8
MY3DLAYER
10
182.57483276309912
20
111.40434574573982
30
2.9999999999792952
 70
     32
  0
VERTEX
  8
MY3DLAYER
10
182.4720194378181
20
111.40333806596782
30
2.999999999979337
 70
     32
  0
VERTEX
  8
MY3DLAYER
10
182.3340690524566
20
111.4053518726566
30
2.9999999999793934
 70
     32
  0
VERTEX
  8
MY3DLAYER
10
182.1981891264515
20
111.41137678736659
30
2.9999999999794493
 70
     32
  0
VERTEX
  8
MY3DLAYER
10
182.0644301477998
20
111.42138805206321
30
2.999999999979504
 70
     32
  0
VERTEX
  8
MY3DLAYER
10
181.93284260449866
20
111.43536090871191
30
2.9999999999795577
 70
     32
  0
VERTEX
  8
MY3DLAYER
10
181.80347698454514
20
111.4532705992781
30
2.9999999999796105
 70
     32
  0
VERTEX
  8
MY3DLAYER
10
181.67638377593627
20
111.47509236572718
30
2.9999999999796625
 70
     32
  0
VERTEX
  8
MY3DLAYER
10
181.5516134666692
20
111.50080145002454
30
2.9999999999797136
 70
     32
  0
VERTEX
  8
MY3DLAYER
10
181.42921654474097
20
111.53037309413565
30
2.9999999999797637
 70
     32
  0
VERTEX
  8
MY3DLAYER
10
181.3092434981486
20
111.56378254002588
30
2.9999999999798126
 70
     32
  0
VERTEX
  8
MY3DLAYER
10
181.1917448148893
20
111.60100502966068
30
2.999999999979861
 70
     32
  0
VERTEX
  8
MY3DLAYER
10
181.07677098296003
20
111.64201580500546
30
2.999999999979908
 70
     32
  0
VERTEX
  8
MY3DLAYER
10
180.96437249035793
20
111.68679010802559
30
2.999999999979954
 70
     32
  0
VERTEX
  8
MY3DLAYER
10
180.85459982508002
20
111.73530318068654
30
2.9999999999799987
 70
     32
  0
VERTEX
  8
MY3DLAYER
10
180.74750347512344
20
111.7875302649537
30
2.9999999999800426
 70
     32
  0
VERTEX
  8
MY3DLAYER
10
180.64313392848524
20
111.84344660279253
30
2.9999999999800853
 70
     32
  0
VERTEX
  8
MY3DLAYER
10
180.54154167316253
20
111.90302743616836
30
2.9999999999801266
 70
     32
  0
VERTEX
  8
MY3DLAYER
10
180.44013348635457
20
111.96928387992168
30
2.9999999999801683
 70
     32
  0
VERTEX
  8
MY3DLAYER
10
180.34271279369102
20
112.03879680324877
30
2.9999999999802083
 70
     32
  0
VERTEX
  8
MY3DLAYER
10
180.24922935381448
20
112.11159154086151
30
2.9999999999802465
 70
     32
  0
VERTEX
  8
MY3DLAYER
10
180.15963292536765
20
112.18769342747167
30
2.999999999980283
 70
     32
  0
VERTEX
  8
MY3DLAYER
10
180.0738732669933
20
112.2671277977911
30
2.999999999980318
 70
     32
  0
VERTEX
  8
MY3DLAYER
10
179.99190013733406
20
112.34991998653157
30
2.9999999999803517
 70
     32
  0
VERTEX
  8
MY3DLAYER
10
179.91366329503268
20
112.4360953284049
30
2.9999999999803837
 70
     32
  0
VERTEX
  8
MY3DLAYER
10
179.83911249873177
20
112.52567915812293
30
2.999999999980414
 70
     32
  0
VERTEX
  8
MY3DLAYER
10
179.7681975070741
20
112.61869681039741
30
2.9999999999804428
 70
     32
  0
VERTEX
  8
MY3DLAYER
10
179.7008680787023
20
112.7151736199402
30
2.999999999980469
 70
     32
  0
VERTEX
  8
MY3DLAYER
10
179.63707397225912
20
112.81513492146311
30
2.9999999999804956
 70
     32
  0
VERTEX
  8
MY3DLAYER
10
179.57676494638721
20
112.91860604967792
30
2.99999999998052
 70
     32
  0
VERTEX
  8
MY3DLAYER
10
179.5198907597293
20
113.02561233929647
30
2.9999999999805436
 70
     32
  0
VERTEX
  8
MY3DLAYER
10
179.466401170928
20
113.13617912503054
30
2.9999999999805653
 70
     32
  0
VERTEX
  8
MY3DLAYER
10
179.4162459386261
20
113.25033174159199
30
2.9999999999805858
 70
     32
  0
VERTEX
  8
MY3DLAYER
10
179.36937482146632
20
113.36809552369256
30
2.999999999980605
 70
     32
  0
VERTEX
  8
MY3DLAYER
10
179.32635469866577
20
113.48929075182915
30
2.9999999999806226
 70
     32
  0
VERTEX
  8
MY3DLAYER
10
179.287802357069
20
113.61372055541972
30
2.999999999980638
 70
     32
  0
VERTEX
  8
MY3DLAYER
10
179.25374321938395
20
113.74138454255785
30
2.9999999999806524
 70
     32
  0
VERTEX
  8
MY3DLAYER
10
179.22420270831836
20
113.87228232133718
30
2.9999999999806644
 70
     32
  0
VERTEX
  8
MY3DLAYER
10
179.19920624658016
20
114.00641349985126
30
2.9999999999806746
 70
     32
  0
VERTEX
  8
MY3DLAYER
10
179.17877925687722
20
114.14377768619367
30
2.999999999980683
 70
     32
  0
VERTEX
  8
MY3DLAYER
10
179.16294716191734
20
114.28437448845798
30
2.9999999999806892
 70
     32
  0
VERTEX
  8
MY3DLAYER
10
179.15173538440848
20
114.42820351473783
30
2.999999999980694
 70
     32
  0
VERTEX
  8
MY3DLAYER
10
179.14516934705844
20
114.57526437312677
30
2.9999999999806968
 70
     32
  0
VERTEX
  8
MY3DLAYER
10
179.14327447257511
20
114.72555667171837
30
2.9999999999806977
 70
     32
  0
VERTEX
  8
MY3DLAYER
10
179.1460761836663
20
114.87908001860623
30
2.9999999999806963
 70
     32
  0
VERTEX
  8
MY3DLAYER
10
179.15359990303995
20
115.03583402188397
30
2.999999999980693
 70
     32
  0
VERTEX
  8
MY3DLAYER
10
179.1658710534039
20
115.19581828964512
30
2.9999999999806883
 70
     32
  0
VERTEX
  8
MY3DLAYER
10
179.18291505746598
20
115.3590324299833
30
2.9999999999806817
 70
     32
  0
VERTEX
  8
MY3DLAYER
10
179.2047573379341
20
115.52547605099208
30
2.9999999999806723
 70
     32
  0
VERTEX
  8
MY3DLAYER
10
179.2314233175161
20
115.69514876076504
30
2.9999999999806617
 70
     32
  0
VERTEX
  8
MY3DLAYER
10
179.2590935170506
20
115.8583549537985
30
2.99999999998065
 70
     32
  0
VERTEX
  8
MY3DLAYER
10
179.29037762463304
20
116.01832685522271
30
2.9999999999806377
 70
     32
  0
VERTEX
  8
MY3DLAYER
10
179.32524991448136
20
116.17506481639484
30
2.9999999999806235
 70
     32
  0
VERTEX
  8
MY3DLAYER
10
179.36368466081333
20
116.32856918867208
30
2.9999999999806075
 70
     32
  0
VERTEX
  8
MY3DLAYER
10
179.40565613784682
20
116.47884032341155
30
2.9999999999805906
 70
     32
  0
VERTEX
  8
MY3DLAYER
10
179.45113861979968
20
116.62587857197043
30
2.999999999980572
 70
     32
  0
VERTEX
  8
MY3DLAYER
10
179.50010638088975
20
116.76968428570592
30
2.999999999980552
 70
     32
  0
VERTEX
  8
MY3DLAYER
10
179.55253369533486
20
116.91025781597514
30
2.9999999999805307
 70
     32
  0
VERTEX
  8
MY3DLAYER
10
179.60839483735288
20
117.04759951413529
30
2.999999999980508
 70
     32
  0
VERTEX
  8
MY3DLAYER
10
179.6676640811616
20
117.18170973154348
30
2.9999999999804836
 70
     32
  0
VERTEX
  8
MY3DLAYER
10
179.7303157009789
20
117.31258881955692
30
2.9999999999804583
 70
     32
  0
VERTEX
  8
MY3DLAYER
10
179.79632397102264
20
117.44023712953276
30
2.9999999999804308
 70
     32
  0
VERTEX
  8
MY3DLAYER
10
179.8656631655106
20
117.56465501282818
30
2.999999999980403
 70
     32
  0
VERTEX
  8
MY3DLAYER
10
179.93830755866068
20
117.68584282080035
30
2.999999999980373
 70
     32
  0
VERTEX
  8
MY3DLAYER
10
180.01423142469068
20
117.80380090480637
30
2.999999999980342
 70
     32
  0
VERTEX
  8
MY3DLAYER
10
180.09340903781847
20
117.91852961620349
30
2.9999999999803095
 70
     32
  0
VERTEX
  8
MY3DLAYER
10
180.17521848436692
20
118.03001937725175
30
2.999999999980276
 70
     32
  0
VERTEX
  8
MY3DLAYER
10
180.25907194129164
20
118.13822671953791
30
2.999999999980242
 70
     32
  0
VERTEX
  8
MY3DLAYER
10
180.3449948187595
20
118.24310115840922
30
2.999999999980207
 70
     32
  0
VERTEX
  8
MY3DLAYER
10
180.43301252693726
20
118.3445922092128
30
2.999999999980171
 70
     32
  0
VERTEX
  8
MY3DLAYER
10
180.52315047599186
20
118.4426493872959
30
2.9999999999801337
 70
     32
  0
VERTEX
  8
MY3DLAYER
10
180.61543407609014
20
118.53722220800567
30
2.999999999980096
 70
     32
  0
VERTEX
  8
MY3DLAYER
10
180.70988873739896
20
118.62826018668933
30
2.9999999999800577
 70
     32
  0
VERTEX
  8
MY3DLAYER
10
180.8065398700852
20
118.71571283869405
30
2.999999999980018
 70
     32
  0
VERTEX
  8
MY3DLAYER
10
180.9054128843157
20
118.79952967936703
30
2.999999999979978
 70
     32
  0
VERTEX
  8
MY3DLAYER
10
181.00653319025724
20
118.87966022405543
30
2.9999999999799365
 70
     32
  0
VERTEX
  8
MY3DLAYER
10
181.10992619807683
20
118.9560539881065
30
2.9999999999798943
 70
     32
  0
VERTEX
  8
MY3DLAYER
10
181.21561731794125
20
119.02866048686738
30
2.999999999979851
 70
     32
  0
VERTEX
  8
MY3DLAYER
10
181.32363196001737
20
119.09742923568528
30
2.999999999979807
 70
     32
  0
VERTEX
  8
MY3DLAYER
10
181.43399553447202
20
119.16230974990742
30
2.9999999999797615
 70
     32
  0
VERTEX
  8
MY3DLAYER
10
181.54673345147208
20
119.22325154488092
30
2.9999999999797184
 70
     32
  0
VERTEX
  8
MY3DLAYER
10
181.66187112118442
20
119.28020413595301
30
2.9999999999796714
 70
     32
  0
VERTEX
  8
MY3DLAYER
10
181.77862671086461
20
119.33655951129028
30
2.9999999999796234
 70
     32
  0
VERTEX
  8
MY3DLAYER
10
181.89621803940696
20
119.38927962271067
30
2.9999999999795754
 70
     32
  0
VERTEX
  8
MY3DLAYER
10
182.01466999443645
20
119.43836439225096
30
2.999999999979527
 70
     32
  0
VERTEX
  8
MY3DLAYER
10
182.13400746357803
20
119.48381374194788
30
2.999999999979478
 70
     32
  0
VERTEX
  8
MY3DLAYER
10
182.2542553344567
20
119.5256275938382
30
2.9999999999794293
 70
     32
  0
VERTEX
  8
MY3DLAYER
10
182.37543849469742
20
119.56380586995864
30
2.9999999999793796
 70
     32
  0
VERTEX
  8
MY3DLAYER
10
182.49758183192517
20
119.59834849234598
30
2.99999999997933
 70
     32
  0
VERTEX
  8
MY3DLAYER
10
182.62071023376492
20
119.62925538303695
30
2.9999999999792792
 70
     32
  0
VERTEX
  8
MY3DLAYER
10
182.74484858784163
20
119.65652646406834
30
2.9999999999792286
 70
     32
  0
VERTEX
  8
MY3DLAYER
10
182.87002178178028
20
119.68016165747683
30
2.9999999999791775
 70
     32
  0
VERTEX
  8
MY3DLAYER
10
182.99625470320584
20
119.70016088529923
30
2.9999999999791256
 70
     32
  0
VERTEX
  8
MY3DLAYER
10
183.1235722397433
20
119.71652406957229
30
2.9999999999790736
 70
     32
  0
VERTEX
  8
MY3DLAYER
10
183.25199927901758
20
119.72925113233272
30
2.999999999979021
 70
     32
  0
VERTEX
  8
MY3DLAYER
10
183.38156070865375
20
119.73834199561729
30
2.999999999978968
 70
     32
  0
VERTEX
  8
MY3DLAYER
10
183.5122814162767
20
119.74379658146275
30
2.999999999978915
 70
     32
  0
VERTEX
  8
MY3DLAYER
10
183.64418628951142
20
119.74561481190587
30
2.999999999978861
 70
     32
  0
VERTEX
  8
MY3DLAYER
10
183.73749683316706
20
119.74481209835285
30
2.9999999999788227
 70
     32
  0
VERTEX
  8
MY3DLAYER
10
183.82994884886375
20
119.74242060977987
30
2.999999999978785
 70
     32
  0
VERTEX
  8
MY3DLAYER
10
183.92149185069462
20
119.73846532431621
30
2.9999999999787477
 70
     32
  0
VERTEX
  8
MY3DLAYER
10
184.0120753527528
20
119.73297122009103
30
2.9999999999787104
 70
     32
  0
VERTEX
  8
MY3DLAYER
10
184.10164886913128
20
119.72596327523361
30
2.999999999978674
 70
     32
  0
VERTEX
  8
MY3DLAYER
10
184.19016191392322
20
119.71746646787317
30
2.9999999999786375
 70
     32
  0
VERTEX
  8
MY3DLAYER
10
184.27756400122166
20
119.7075057761389
30
2.999999999978602
 70
     32
  0
VERTEX
  8
MY3DLAYER
10
184.36380464511976
20
119.69610617816004
30
2.9999999999785665
 70
     32
  0
VERTEX
  8
MY3DLAYER
10
184.44883335971056
20
119.68329265206584
30
2.999999999978532
 70
     32
  0
VERTEX
  8
MY3DLAYER
10
184.53259965908714
20
119.66909017598552
30
2.9999999999784976
 70
     32
  0
VERTEX
  8
MY3DLAYER
10
184.61505305734264
20
119.65352372804828
30
2.999999999978464
 70
     32
  0
VERTEX
  8
MY3DLAYER
10
184.6961430685701
20
119.6366182863834
30
2.9999999999784306
 70
     32
  0
VERTEX
  8
MY3DLAYER
10
184.77581920686265
20
119.61839882912005
30
2.999999999978398
 70
     32
  0
VERTEX
  8
MY3DLAYER
10
184.85403098631335
20
119.59889033438749
30
2.999999999978366
 70
     32
  0
VERTEX
  8
MY3DLAYER
10
184.9307279210153
20
119.57811778031493
30
2.9999999999783347
 70
     32
  0
SEQEND
  0
POLYLINE
 8
Layer0
 66
     1
70
    8
 10
0.0
 20
 0.0
 30
0.0
  0
VERTEX
  8
MY3DLAYER
10
85.9999999999898
20
81.00000000000296
30
2.9999999999986464
 70
     32
  0
VERTEX
  8
MY3DLAYER
10
96.99999999998985
20
81.00000000000297
30
2.9999999999986464
 70
     32
  0
VERTEX
  8
MY3DLAYER
10
96.99999999998985
20
97.30000000000297
30
2.999999999990425
 70
     32
  0
VERTEX
  8
MY3DLAYER
10
93.99999999998987
20
97.30000000000297
30
2.999999999990425
 70
     32
  0
VERTEX
  8
MY3DLAYER
10
93.99999999998987
20
112.30000000000298
30
2.999999999982859
 70
     32
  0
VERTEX
  8
MY3DLAYER
10
96.99999999998985
20
112.30000000000298
30
2.999999999982859
 70
     32
  0
VERTEX
  8
MY3DLAYER
10
96.99999999998985
20
128.60000000000298
30
2.999999999974637
 70
     32
  0
VERTEX
  8
MY3DLAYER
10
85.99999999998985
20
128.60000000000298
30
2.999999999974637
 70
     32
  0
VERTEX
  8
MY3DLAYER
10
85.99999999998985
20
131.60000000000295
30
2.999999999973124
 70
     32
  0
VERTEX
  8
MY3DLAYER
10
70.99999999998985
20
131.60000000000295
30
2.999999999973124
 70
     32
  0
VERTEX
  8
MY3DLAYER
10
70.99999999998985
20
128.60000000000298
30
2.999999999974637
 70
     32
  0
VERTEX
  8
MY3DLAYER
10
55.99999999998986
20
128.60000000000298
30
2.999999999974637
 70
     32
  0
VERTEX
  8
MY3DLAYER
10
55.99999999998986
20
131.60000000000295
30
2.999999999973124
 70
     32
  0
VERTEX
  8
MY3DLAYER
10
40.999999999989846
20
131.60000000000295
30
2.999999999973124
 70
     32
  0
VERTEX
  8
MY3DLAYER
10
40.999999999989846
20
128.60000000000298
30
2.999999999974637
 70
     32
  0
VERTEX
  8
MY3DLAYER
10
25.999999999989846
20
128.60000000000298
30
2.999999999974637
 70
     32
  0
VERTEX
  8
MY3DLAYER
10
25.999999999989846
20
131.60000000000295
30
2.999999999973124
 70
     32
  0
VERTEX
  8
MY3DLAYER
10
10.999999999989841
20
131.60000000000295
30
2.999999999973124
 70
     32
  0
VERTEX
  8
MY3DLAYER
10
10.999999999989841
20
128.60000000000298
30
2.999999999974637
 70
     32
  0
VERTEX
  8
MY3DLAYER
10
-1.0158929253378801e-11
20
128.60000000000298
30
2.999999999974637
 70
     32
  0
VERTEX
  8
MY3DLAYER
10
-1.014976436231052e-11
20
112.35000000000296
30
2.9999999999828337
 70
     32
  0
VERTEX
  8
MY3DLAYER
10
2.9999999999898392
20
112.35000000000296
30
2.9999999999828337
 70
     32
  0
VERTEX
  8
MY3DLAYER
10
2.9999999999898277
20
97.30000000000297
30
2.999999999990425
 70
     32
  0
VERTEX
  8
MY3DLAYER
10
-1.016139672405103e-11
20
97.30000000000297
30
2.999999999990425
 70
     32
  0
VERTEX
  8
MY3DLAYER
10
-1.0163159203102622e-11
20
81.00000000000297
30
2.9999999999986464
 70
     32
  0
VERTEX
  8
MY3DLAYER
10
10.999999999989885
20
81.00000000000297
30
2.9999999999986464
 70
     32
  0
VERTEX
  8
MY3DLAYER
10
10.999999999989885
20
78.00000000000297
30
3.00000000000016
 70
     32
  0
VERTEX
  8
MY3DLAYER
10
25.999999999989907
20
78.00000000000297
30
3.00000000000016
 70
     32
  0
VERTEX
  8
MY3DLAYER
10
25.999999999989907
20
81.00000000000297
30
2.9999999999986464
 70
     32
  0
VERTEX
  8
MY3DLAYER
10
40.99999999998988
20
81.00000000000296
30
2.9999999999986464
 70
     32
  0
VERTEX
  8
MY3DLAYER
10
40.99999999998988
20
78.00000000000296
30
3.00000000000016
 70
     32
  0
VERTEX
  8
MY3DLAYER
10
55.999999999989804
20
78.00000000000294
30
3.00000000000016
 70
     32
  0
VERTEX
  8
MY3DLAYER
10
55.999999999989804
20
81.00000000000294
30
2.9999999999986464
 70
     32
  0
VERTEX
  8
MY3DLAYER
10
70.99999999998983
20
81.00000000000297
30
2.9999999999986464
 70
     32
  0
VERTEX
  8
MY3DLAYER
10
70.99999999998983
20
78.00000000000297
30
3.00000000000016
 70
     32
  0
VERTEX
  8
MY3DLAYER
10
85.9999999999898
20
78.00000000000296
30
3.00000000000016
 70
     32
  0
VERTEX
  8
MY3DLAYER
10
85.9999999999898
20
81.00000000000296
30
2.9999999999986464
 70
     32
  0
SEQEND
  0
POLYLINE
 8
Layer0
 66
     1
70
    8
 10
0.0
 20
 0.0
 30
0.0
  0
VERTEX
  8
MY3DLAYER
10
18.499999999989846
20
100.32500000000297
30
2.999999999988899
 70
     32
  0
VERTEX
  8
MY3DLAYER
10
18.499999999989846
20
109.32500000000293
30
2.9999999999843596
 70
     32
  0
VERTEX
  8
MY3DLAYER
10
78.49999999998984
20
109.32500000000293
30
2.9999999999843596
 70
     32
  0
VERTEX
  8
MY3DLAYER
10
78.49999999998984
20
100.32500000000297
30
2.999999999988899
 70
     32
  0
VERTEX
  8
MY3DLAYER
10
18.499999999989846
20
100.32500000000297
30
2.999999999988899
 70
     32
  0
SEQEND
  0
POLYLINE
 8
Layer0
 66
     1
70
    8
 10
0.0
 20
 0.0
 30
0.0
  0
VERTEX
  8
MY3DLAYER
10
85.44999999998986
20
88.31532124827119
30
2.9999999999949565
 70
     32
  0
VERTEX
  8
MY3DLAYER
10
84.80796897831155
20
88.80796897832465
30
2.9999999999947082
 70
     32
  0
VERTEX
  8
MY3DLAYER
10
84.31532124825809
20
89.45000000000296
30
2.9999999999943845
 70
     32
  0
VERTEX
  8
MY3DLAYER
10
84.00562993849374
20
90.19766096018513
30
2.9999999999940075
 70
     32
  0
VERTEX
  8
MY3DLAYER
10
83.89999999998986
20
91.00000000000294
30
2.999999999993603
 70
     32
  0
VERTEX
  8
MY3DLAYER
10
84.00562993849374
20
91.80233903982075
30
2.999999999993198
 70
     32
  0
VERTEX
  8
MY3DLAYER
10
84.31532124825809
20
92.55000000000295
30
2.999999999992821
 70
     32
  0
VERTEX
  8
MY3DLAYER
10
84.80796897831155
20
93.19203102168125
30
2.999999999992497
 70
     32
  0
VERTEX
  8
MY3DLAYER
10
85.44999999998986
20
93.68467875173471
30
2.9999999999922484
 70
     32
  0
VERTEX
  8
MY3DLAYER
10
86.19766096017203
20
93.99437006149905
30
2.999999999992092
 70
     32
  0
VERTEX
  8
MY3DLAYER
10
86.99999999998985
20
94.10000000000294
30
2.999999999992039
 70
     32
  0
VERTEX
  8
MY3DLAYER
10
87.80233903980766
20
93.99437006149905
30
2.999999999992092
 70
     32
  0
VERTEX
  8
MY3DLAYER
10
88.54999999998985
20
93.68467875173471
30
2.9999999999922484
 70
     32
  0
VERTEX
  8
MY3DLAYER
10
89.19203102166814
20
93.19203102168125
30
2.999999999992497
 70
     32
  0
VERTEX
  8
MY3DLAYER
10
89.6846787517216
20
92.55000000000295
30
2.999999999992821
 70
     32
  0
VERTEX
  8
MY3DLAYER
10
89.99437006148595
20
91.80233903982077
30
2.999999999993198
 70
     32
  0
VERTEX
  8
MY3DLAYER
10
90.09999999998985
20
91.00000000000294
30
2.999999999993603
 70
     32
  0
VERTEX
  8
MY3DLAYER
10
89.99437006148595
20
90.19766096018513
30
2.9999999999940075
 70
     32
  0
VERTEX
  8
MY3DLAYER
10
89.6846787517216
20
89.45000000000296
30
2.9999999999943845
 70
     32
  0
VERTEX
  8
MY3DLAYER
10
89.19203102166814
20
88.80796897832465
30
2.9999999999947082
 70
     32
  0
VERTEX
  8
MY3DLAYER
10
88.54999999998985
20
88.3153212482712
30
2.9999999999949565
 70
     32
  0
VERTEX
  8
MY3DLAYER
10
87.80233903980766
20
88.00562993850684
30
2.9999999999951132
 70
     32
  0
VERTEX
  8
MY3DLAYER
10
86.99999999998985
20
87.90000000000295
30
2.9999999999951665
 70
     32
  0
VERTEX
  8
MY3DLAYER
10
86.19766096017203
20
88.00562993850684
30
2.9999999999951132
 70
     32
  0
VERTEX
  8
MY3DLAYER
10
85.44999999998986
20
88.31532124827119
30
2.9999999999949565
 70
     32
  0
SEQEND
  0
POLYLINE
 8
Layer0
 66
     1
70
    8
 10
0.0
 20
 0.0
 30
0.0
  0
VERTEX
  8
MY3DLAYER
10
253.59999999995583
20
95.63346918775376
30
3.000000000007711
 70
     32
  0
VERTEX
  8
MY3DLAYER
10
253.599999999955
20
97.63346918775375
30
3.000000000008082
 70
     32
  0
VERTEX
  8
MY3DLAYER
10
253.56577944545003
20
98.15557395663394
30
3.0000000000081792
 70
     32
  0
VERTEX
  8
MY3DLAYER
10
253.4637033051109
20
98.66874536816377
30
3.0000000000082743
 70
     32
  0
VERTEX
  8
MY3DLAYER
10
253.29551812999955
20
99.16420291721398
30
3.000000000008366
 70
     32
  0
VERTEX
  8
MY3DLAYER
10
253.06410161509197
20
99.63346918775353
30
3.0000000000084532
 70
     32
  0
VERTEX
  8
MY3DLAYER
10
252.773413361119
20
100.0685149037883
30
3.000000000008545
 70
     32
  0
VERTEX
  8
MY3DLAYER
10
252.42842712470008
20
100.46189631249948
30
3.0000000000086184
 70
     32
  0
VERTEX
  8
MY3DLAYER
10
252.0350457159886
20
100.80688254891807
30
3.0000000000086824
 70
     32
  0
VERTEX
  8
MY3DLAYER
10
251.5999999999536
20
101.0975708028907
30
3.0000000000087477
 70
     32
  0
VERTEX
  8
MY3DLAYER
10
251.13073372941386
20
101.32898731779791
30
3.0000000000087907
 70
     32
  0
VERTEX
  8
MY3DLAYER
10
250.63527618036352
20
101.49717249290883
30
3.000000000008822
 70
     32
  0
VERTEX
  8
MY3DLAYER
10
250.12210476883362
20
101.5992486332476
30
3.000000000008852
 70
     32
  0
VERTEX
  8
MY3DLAYER
10
249.59999999995338
20
101.63346918775214
30
3.0000000000088582
 70
     32
  0
VERTEX
  8
MY3DLAYER
10
246.59999999995338
20
101.63346918775092
30
3.0000000000088245
 70
     32
  0
VERTEX
  8
MY3DLAYER
10
246.59999999994938
20
111.63346918775093
30
3.0000000000106803
 70
     32
  0
VERTEX
  8
MY3DLAYER
10
249.59999999994938
20
111.63346918775214
30
3.0000000000106803
 70
     32
  0
VERTEX
  8
MY3DLAYER
10
249.59999999994554
20
121.18176084061514
30
3.0000000000124523
 70
     32
  0
VERTEX
  8
MY3DLAYER
10
246.59999999994554
20
121.18176084061395
30
3.0000000000124523
 70
     32
  0
VERTEX
  8
MY3DLAYER
10
246.59999999994133
20
131.63346918775093
30
3.000000000014392
 70
     32
  0
VERTEX
  8
MY3DLAYER
10
249.59999999994133
20
131.63346918775215
30
3.000000000014392
 70
     32
  0
VERTEX
  8
MY3DLAYER
10
250.12210476882154
20
131.6676897422571
30
3.0000000000143983
 70
     32
  0
VERTEX
  8
MY3DLAYER
10
250.63527618035138
20
131.7697658825963
30
3.0000000000144174
 70
     32
  0
VERTEX
  8
MY3DLAYER
10
251.13073372940158
20
131.9379510577076
30
3.0000000000144484
 70
     32
  0
VERTEX
  8
MY3DLAYER
10
251.5999999999411
20
132.1693675726152
30
3.000000000014491
 70
     32
  0
VERTEX
  8
MY3DLAYER
10
252.03504571597588
20
132.46005582658816
30
3.0000000000145453
 70
     32
  0
VERTEX
  8
MY3DLAYER
10
252.4284271246871
20
132.8050420630071
30
3.000000000014609
 70
     32
  0
VERTEX
  8
MY3DLAYER
10
252.77341336110567
20
133.19842347171857
30
3.0000000000146825
 70
     32
  0
VERTEX
  8
MY3DLAYER
10
253.0641016150783
20
133.63346918775355
30
3.000000000014763
 70
     32
  0
VERTEX
  8
MY3DLAYER
10
253.2955181299855
20
134.10273545829327
30
3.00000000001485
 70
     32
  0
VERTEX
  8
MY3DLAYER
10
253.4637033050964
20
134.59819300734364
30
3.0000000000149423
 70
     32
  0
VERTEX
  8
MY3DLAYER
10
253.56577944543517
20
135.11136441887353
30
3.0000000000150373
 70
     32
  0
VERTEX
  8
MY3DLAYER
10
253.59999999993974
20
135.63346918775375
30
3.000000000015134
 70
     32
  0
VERTEX
  8
MY3DLAYER
10
253.59999999993894
20
137.63346918775375
30
3.0000000000155054
 70
     32
  0
VERTEX
  8
MY3DLAYER
10
253.56577944543398
20
138.15557395663393
30
3.000000000015602
 70
     32
  0
VERTEX
  8
MY3DLAYER
10
253.46370330509478
20
138.6687453681638
30
3.0000000000156977
 70
     32
  0
VERTEX
  8
MY3DLAYER
10
253.29551812998346
20
139.164202917214
30
3.0000000000157896
 70
     32
  0
VERTEX
  8
MY3DLAYER
10
253.06410161507586
20
139.63346918775355
30
3.0000000000158766
 70
     32
  0
VERTEX
  8
MY3DLAYER
10
252.77341336110288
20
140.0685149037883
30
3.0000000000159686
 70
     32
  0
VERTEX
  8
MY3DLAYER
10
252.42842712468396
20
140.46189631249948
30
3.0000000000160414
 70
     32
  0
VERTEX
  8
MY3DLAYER
10
252.03504571597253
20
140.80688254891808
30
3.000000000016106
 70
     32
  0
VERTEX
  8
MY3DLAYER
10
251.59999999993755
20
141.09757080289071
30
3.0000000000161595
 70
     32
  0
VERTEX
  8
MY3DLAYER
10
251.1307337293978
20
141.32898731779792
30
3.0000000000162137
 70
     32
  0
VERTEX
  8
MY3DLAYER
10
250.63527618034746
20
141.49717249290885
30
3.000000000016245
 70
     32
  0
VERTEX
  8
MY3DLAYER
10
250.12210476881756
20
141.5992486332476
30
3.0000000000162754
 70
     32
  0
VERTEX
  8
MY3DLAYER
10
249.59999999993732
20
141.63346918775215
30
3.0000000000162816
 70
     32
  0
VERTEX
  8
MY3DLAYER
10
246.59999999993732
20
141.63346918775093
30
3.000000000016248
 70
     32
  0
VERTEX
  8
MY3DLAYER
10
246.5999999999331
20
152.13346918775093
30
3.000000000018196
 70
     32
  0
VERTEX
  8
MY3DLAYER
10
230.2999999999331
20
152.13346918774437
30
3.000000000018196
 70
     32
  0
VERTEX
  8
MY3DLAYER
10
230.29999999993188
20
155.13346918774437
30
3.0000000000187534
 70
     32
  0
VERTEX
  8
MY3DLAYER
10
215.2999999999319
20
155.13346918773834
30
3.0000000000187534
 70
     32
  0
VERTEX
  8
MY3DLAYER
10
215.29999999993314
20
152.13346918773834
30
3.000000000018196
 70
     32
  0
VERTEX
  8
MY3DLAYER
10
198.9999999999331
20
152.1334691877318
30
3.000000000018196
 70
     32
  0
VERTEX
  8
MY3DLAYER
10
198.99999999993733
20
141.6334691877317
30
3.000000000016248
 70
     32
  0
VERTEX
  8
MY3DLAYER
10
195.99999999993733
20
141.63346918773047
30
3.000000000016248
 70
     32
  0
VERTEX
  8
MY3DLAYER
10
195.99999999994134
20
131.63346918773038
30
3.000000000014392
 70
     32
  0
VERTEX
  8
MY3DLAYER
10
198.99999999994134
20
131.6334691877316
30
3.000000000014392
 70
     32
  0
VERTEX
  8
MY3DLAYER
10
198.99999999994535
20
121.6334691877317
30
3.0000000000125358
 70
     32
  0
VERTEX
  8
MY3DLAYER
10
195.99999999994537
20
121.6334691877305
30
3.0000000000125358
 70
     32
  0
VERTEX
  8
MY3DLAYER
10
195.9999999999494
20
111.63346918773043
30
3.0000000000106803
 70
     32
  0
VERTEX
  8
MY3DLAYER
10
198.99999999994938
20
111.63346918773163
30
3.0000000000106803
 70
     32
  0
VERTEX
  8
MY3DLAYER
10
198.99999999995342
20
101.63346918773175
30
3.0000000000088245
 70
     32
  0
VERTEX
  8
MY3DLAYER
10
195.9999999999534
20
101.63346918773055
30
3.0000000000088245
 70
     32
  0
VERTEX
  8
MY3DLAYER
10
195.99999999995742
20
91.63346918773065
30
3.0000000000069686
 70
     32
  0
VERTEX
  8
MY3DLAYER
10
198.99999999995742
20
91.63346918773186
30
3.0000000000069686
 70
     32
  0
VERTEX
  8
MY3DLAYER
10
198.99999999996163
20
81.13346918773179
30
3.00000000000502
 70
     32
  0
VERTEX
  8
MY3DLAYER
10
215.29999999996164
20
81.13346918773836
30
3.00000000000502
 70
     32
  0
VERTEX
  8
MY3DLAYER
10
215.29999999996286
20
78.13346918773836
30
3.0000000000044635
 70
     32
  0
VERTEX
  8
MY3DLAYER
10
230.29999999996286
20
78.13346918774438
30
3.0000000000044635
 70
     32
  0
VERTEX
  8
MY3DLAYER
10
230.29999999996164
20
81.13346918774438
30
3.00000000000502
 70
     32
  0
VERTEX
  8
MY3DLAYER
10
246.59999999996165
20
81.13346918775093
30
3.00000000000502
 70
     32
  0
VERTEX
  8
MY3DLAYER
10
246.59999999995742
20
91.63346918775095
30
3.0000000000069686
 70
     32
  0
VERTEX
  8
MY3DLAYER
10
249.5999999999574
20
91.63346918775215
30
3.0000000000069913
 70
     32
  0
VERTEX
  8
MY3DLAYER
10
250.1221047688376
20
91.66768974225711
30
3.0000000000069975
 70
     32
  0
VERTEX
  8
MY3DLAYER
10
250.63527618036744
20
91.76976588259629
30
3.0000000000070055
 70
     32
  0
VERTEX
  8
MY3DLAYER
10
251.13073372941764
20
91.93795105770761
30
3.000000000007036
 70
     32
  0
VERTEX
  8
MY3DLAYER
10
251.59999999995722
20
92.1693675726152
30
3.0000000000070792
 70
     32
  0
VERTEX
  8
MY3DLAYER
10
252.035045715992
20
92.46005582658817
30
3.0000000000071334
 70
     32
  0
VERTEX
  8
MY3DLAYER
10
252.42842712470315
20
92.8050420630071
30
3.0000000000071974
 70
     32
  0
VERTEX
  8
MY3DLAYER
10
252.77341336112173
20
93.19842347171854
30
3.000000000007259
 70
     32
  0
VERTEX
  8
MY3DLAYER
10
253.06410161509436
20
93.63346918775353
30
3.00000000000734
 70
     32
  0
VERTEX
  8
MY3DLAYER
10
253.29551813000157
20
94.10273545829327
30
3.000000000007427
 70
     32
  0
VERTEX
  8
MY3DLAYER
10
253.46370330511252
20
94.59819300734362
30
3.000000000007519
 70
     32
  0
VERTEX
  8
MY3DLAYER
10
253.56577944545128
20
95.11136441887353
30
3.000000000007614
 70
     32
  0
VERTEX
  8
MY3DLAYER
10
253.59999999995583
20
95.63346918775376
30
3.000000000007711
 70
     32
  0
SEQEND
  0
POLYLINE
 8
Layer0
 66
     1
70
    8
 10
0.0
 20
 0.0
 30
0.0
  0
VERTEX
  8
MY3DLAYER
10
167.30103494448707
20
115.70385890678568
30
2.99999999998554
 70
     32
  0
VERTEX
  8
MY3DLAYER
10
167.13158389659912
20
115.93649340442008
30
2.9999999999856093
 70
     32
  0
VERTEX
  8
MY3DLAYER
10
166.80800080493742
20
116.40560852235538
30
2.9999999999857416
 70
     32
  0
VERTEX
  8
MY3DLAYER
10
166.51514561124955
20
116.84702333286806
30
2.9999999999858615
 70
     32
  0
VERTEX
  8
MY3DLAYER
10
166.25183159573908
20
117.26616666073241
30
2.9999999999859694
 70
     32
  0
VERTEX
  8
MY3DLAYER
10
166.0168720386094
20
117.6684673307227
30
2.999999999986066
 70
     32
  0
VERTEX
  8
MY3DLAYER
10
165.80908022006406
20
118.05935416761325
30
2.9999999999861506
 70
     32
  0
VERTEX
  8
MY3DLAYER
10
165.6272694203065
20
118.4442559961783
30
2.999999999986225
 70
     32
  0
VERTEX
  8
MY3DLAYER
10
165.47025291954026
20
118.82860164119208
30
2.999999999986289
 70
     32
  0
VERTEX
  8
MY3DLAYER
10
165.33684399796877
20
119.21781992742895
30
2.9999999999863465
 70
     32
  0
VERTEX
  8
MY3DLAYER
10
165.22585593579555
20
119.61733967966313
30
2.999999999986392
 70
     32
  0
VERTEX
  8
MY3DLAYER
10
165.13610201322402
20
120.03258972266894
30
2.999999999986429
 70
     32
  0
VERTEX
  8
MY3DLAYER
10
165.06639551045777
20
120.4689988812206
30
2.9999999999864575
 70
     32
  0
VERTEX
  8
MY3DLAYER
10
165.01554970770016
20
120.93199598009242
30
2.9999999999864784
 70
     32
  0
VERTEX
  8
MY3DLAYER
10
164.9823778851548
20
121.42700984405867
30
2.999999999986492
 70
     32
  0
VERTEX
  8
MY3DLAYER
10
164.96569332302508
20
121.95946929789363
30
2.999999999986499
 70
     32
  0
VERTEX
  8
MY3DLAYER
10
164.9643093015145
20
122.53480316637156
30
2.9999999999864997
 70
     32
  0
VERTEX
  8
MY3DLAYER
10
164.97703910082657
20
123.15844027426674
30
2.999999999986495
 70
     32
  0
VERTEX
  8
MY3DLAYER
10
164.45967939350575
20
122.66049903621119
30
2.9999999999867057
 70
     32
  0
VERTEX
  8
MY3DLAYER
10
164.04091320077268
20
122.12718590050548
30
2.999999999986877
 70
     32
  0
VERTEX
  8
MY3DLAYER
10
163.71430248260913
20
121.56433309781359
30
2.999999999987011
 70
     32
  0
VERTEX
  8
MY3DLAYER
10
163.47340919899696
20
120.97777285879948
30
2.999999999987109
 70
     32
  0
VERTEX
  8
MY3DLAYER
10
163.311795309918
20
120.37333741412712
30
2.999999999987175
 70
     32
  0
VERTEX
  8
MY3DLAYER
10
163.2230227753541
20
119.75685899446052
30
2.999999999987211
 70
     32
  0
VERTEX
  8
MY3DLAYER
10
163.20065355528706
20
119.13416983046358
30
2.9999999999872173
 70
     32
  0
VERTEX
  8
MY3DLAYER
10
163.23824960969876
20
118.51110215280032
30
2.999999999987202
 70
     32
  0
VERTEX
  8
MY3DLAYER
10
163.32937289857094
20
117.89348819213468
30
2.9999999999871645
 70
     32
  0
VERTEX
  8
MY3DLAYER
10
163.46758538188553
20
117.28716017913065
30
2.999999999987108
 70
     32
  0
VERTEX
  8
MY3DLAYER
10
163.6464490196243
20
116.6979503444522
30
2.999999999987035
 70
     32
  0
VERTEX
  8
MY3DLAYER
10
163.85952577176909
20
116.13169091876327
30
2.9999999999869478
 70
     32
  0
VERTEX
  8
MY3DLAYER
10
164.10037759830175
20
115.59421413272786
30
2.9999999999868487
 70
     32
  0
VERTEX
  8
MY3DLAYER
10
164.36256645920412
20
115.09135221700993
30
2.9999999999867413
 70
     32
  0
VERTEX
  8
MY3DLAYER
10
164.639654314458
20
114.62893740227345
30
2.999999999986628
 70
     32
  0
VERTEX
  8
MY3DLAYER
10
164.92520312404523
20
114.21280191918237
30
2.9999999999865112
 70
     32
  0
VERTEX
  8
MY3DLAYER
10
165.20275461155518
20
113.75472615348458
30
2.9999999999863975
 70
     32
  0
VERTEX
  8
MY3DLAYER
10
165.46021019573345
20
113.3324252647235
30
2.9999999999862923
 70
     32
  0
VERTEX
  8
MY3DLAYER
10
165.69767057667218
20
112.93885522837068
30
2.9999999999861955
 70
     32
  0
VERTEX
  8
MY3DLAYER
10
165.91523645446333
20
112.5669720198977
30
2.9999999999861076
 70
     32
  0
VERTEX
  8
MY3DLAYER
10
166.113008529199
20
112.20973161477622
30
2.9999999999860267
 70
     32
  0
VERTEX
  8
MY3DLAYER
10
166.29108750097114
20
111.86008998847778
30
2.999999999985954
 70
     32
  0
VERTEX
  8
MY3DLAYER
10
166.4495740698719
20
111.51100311647401
30
2.999999999985889
 70
     32
  0
VERTEX
  8
MY3DLAYER
10
166.58856893599324
20
111.15542697423649
30
2.9999999999858318
 70
     32
  0
VERTEX
  8
MY3DLAYER
10
166.70817279942725
20
110.78631753723681
30
2.999999999985783
 70
     32
  0
VERTEX
  8
MY3DLAYER
10
166.80848636026593
20
110.3966307809466
30
2.999999999985742
 70
     32
  0
VERTEX
  8
MY3DLAYER
10
166.88961031860134
20
109.97932268083741
30
2.9999999999857088
 70
     32
  0
VERTEX
  8
MY3DLAYER
10
166.95164537452558
20
109.52734921238088
30
2.999999999985683
 70
     32
  0
VERTEX
  8
MY3DLAYER
10
166.9946922281306
20
109.03366635104858
30
2.9999999999856657
 70
     32
  0
VERTEX
  8
MY3DLAYER
10
167.01885157950846
20
108.4912300723121
30
2.9999999999856555
 70
     32
  0
VERTEX
  8
MY3DLAYER
10
167.02422412875126
20
107.89299635164306
30
2.9999999999856533
 70
     32
  0
VERTEX
  8
MY3DLAYER
10
167.010910575951
20
107.23192116451307
30
2.999999999985659
 70
     32
  0
VERTEX
  8
MY3DLAYER
10
167.1930789925763
20
107.47141796204025
30
2.999999999985584
 70
     32
  0
VERTEX
  8
MY3DLAYER
10
167.36459045168837
20
107.71780846112705
30
2.999999999985514
 70
     32
  0
VERTEX
  8
MY3DLAYER
10
167.52529374638658
20
107.97071381765166
30
2.9999999999854485
 70
     32
  0
VERTEX
  8
MY3DLAYER
10
167.6750376697703
20
108.22975518749219
30
2.9999999999853872
 70
     32
  0
VERTEX
  8
MY3DLAYER
10
167.81367101493888
20
108.49455372652683
30
2.999999999985331
 70
     32
  0
VERTEX
  8
MY3DLAYER
10
167.94104257499174
20
108.76473059063372
30
2.9999999999852784
 70
     32
  0
VERTEX
  8
MY3DLAYER
10
168.05700114302823
20
109.03990693569104
30
2.9999999999852314
 70
     32
  0
VERTEX
  8
MY3DLAYER
10
168.16139551214772
20
109.3197039175769
30
2.9999999999851887
 70
     32
  0
VERTEX
  8
MY3DLAYER
10
168.25407447544964
20
109.60374269216952
30
2.999999999985151
 70
     32
  0
VERTEX
  8
MY3DLAYER
10
168.33488682603328
20
109.891644415347
30
2.9999999999851177
 70
     32
  0
VERTEX
  8
MY3DLAYER
10
168.40368135699808
20
110.18303024298751
30
2.9999999999850897
 70
     32
  0
VERTEX
  8
MY3DLAYER
10
168.46030686144337
20
110.47752133096924
30
2.9999999999850666
 70
     32
  0
VERTEX
  8
MY3DLAYER
10
168.5046121324686
20
110.77473883517031
30
2.9999999999850484
 70
     32
  0
VERTEX
  8
MY3DLAYER
10
168.53644596317304
20
111.0743039114689
30
2.9999999999850355
 70
     32
  0
VERTEX
  8
MY3DLAYER
10
168.55565714665616
20
111.37583771574313
30
2.999999999985028
 70
     32
  0
VERTEX
  8
MY3DLAYER
10
168.56209447601725
20
111.6789614038712
30
2.999999999985025
 70
     32
  0
VERTEX
  8
MY3DLAYER
10
168.55625488789377
20
111.96613309656382
30
2.9999999999850275
 70
     32
  0
VERTEX
  8
MY3DLAYER
10
168.53880323183614
20
112.2521460382009
30
2.999999999985035
 70
     32
  0
VERTEX
  8
MY3DLAYER
10
168.5098401703134
20
112.53664636278978
30
2.9999999999850466
 70
     32
  0
VERTEX
  8
MY3DLAYER
10
168.4694663657946
20
112.81928020433784
30
2.9999999999850617
 70
     32
  0
VERTEX
  8
MY3DLAYER
10
168.41778248074874
20
113.09969369685253
30
2.999999999985083
 70
     32
  0
VERTEX
  8
MY3DLAYER
10
168.35488917764485
20
113.37753297434116
30
2.999999999985109
 70
     32
  0
VERTEX
  8
MY3DLAYER
10
168.28088711895194
20
113.65244417081114
30
2.999999999985139
 70
     32
  0
VERTEX
  8
MY3DLAYER
10
168.19587696713901
20
113.92407342026986
30
2.9999999999851736
 70
     32
  0
VERTEX
  8
MY3DLAYER
10
168.09995938467517
20
114.19206685672471
30
2.999999999985213
 70
     32
  0
VERTEX
  8
MY3DLAYER
10
167.99323503402937
20
114.45607061418303
30
2.9999999999852567
 70
     32
  0
VERTEX
  8
MY3DLAYER
10
167.87580457767066
20
114.71573082665226
30
2.999999999985305
 70
     32
  0
VERTEX
  8
MY3DLAYER
10
167.74776867806804
20
114.97069362813976
30
2.999999999985357
 70
     32
  0
VERTEX
  8
MY3DLAYER
10
167.60922799769054
20
115.2206051526529
30
2.999999999985414
 70
     32
  0
VERTEX
  8
MY3DLAYER
10
167.46028319900725
20
115.46511153419908
30
2.9999999999854747
 70
     32
  0
VERTEX
  8
MY3DLAYER
10
167.30103494448707
20
115.70385890678568
30
2.99999999998554
 70
     32
  0
SEQEND
  0
POLYLINE
 8
Layer0
 66
     1
70
    8
 10
0.0
 20
 0.0
 30
0.0
  0
VERTEX
  8
MY3DLAYER
10
169.82037542798855
20
119.41815521183267
30
2.9999999999845133
 70
     32
  0
VERTEX
  8
MY3DLAYER
10
169.7037685701021
20
119.7873302912931
30
2.9999999999845612
 70
     32
  0
VERTEX
  8
MY3DLAYER
10
169.56943735896564
20
120.15208929287475
30
2.9999999999846163
 70
     32
  0
VERTEX
  8
MY3DLAYER
10
169.42066409336556
20
120.51326507445734
30
2.999999999984677
 70
     32
  0
VERTEX
  8
MY3DLAYER
10
169.26073107208836
20
120.87169049392055
30
2.9999999999847424
 70
     32
  0
VERTEX
  8
MY3DLAYER
10
169.09292059392047
20
121.22819840914417
30
2.9999999999848113
 70
     32
  0
VERTEX
  8
MY3DLAYER
10
168.92051495764838
20
121.5836216780079
30
2.9999999999848814
 70
     32
  0
VERTEX
  8
MY3DLAYER
10
168.74679646205848
20
121.93879315839145
30
2.999999999984953
 70
     32
  0
VERTEX
  8
MY3DLAYER
10
168.5750474059373
20
122.29454570817455
30
2.999999999985023
 70
     32
  0
VERTEX
  8
MY3DLAYER
10
168.4085500880713
20
122.65171218523696
30
2.9999999999850915
 70
     32
  0
VERTEX
  8
MY3DLAYER
10
168.25058680724695
20
123.01112544745837
30
2.999999999985156
 70
     32
  0
VERTEX
  8
MY3DLAYER
10
168.10443986225064
20
123.37361835271854
30
2.999999999985216
 70
     32
  0
VERTEX
  8
MY3DLAYER
10
167.97339155186887
20
123.74002375889715
30
2.9999999999852696
 70
     32
  0
VERTEX
  8
MY3DLAYER
10
167.86072417488808
20
124.11117452387397
30
2.9999999999853153
 70
     32
  0
VERTEX
  8
MY3DLAYER
10
167.7697200300948
20
124.48790350552873
30
2.999999999985353
 70
     32
  0
VERTEX
  8
MY3DLAYER
10
167.7036614162754
20
124.8710435617411
30
2.9999999999853797
 70
     32
  0
VERTEX
  8
MY3DLAYER
10
167.6658306322164
20
125.26142755039086
30
2.999999999985394
 70
     32
  0
VERTEX
  8
MY3DLAYER
10
167.5240719797006
20
125.15080712930276
30
2.999999999985452
 70
     32
  0
VERTEX
  8
MY3DLAYER
10
167.38981264559422
20
125.0325332569
30
2.9999999999855067
 70
     32
  0
VERTEX
  8
MY3DLAYER
10
167.2632798039373
20
124.90703560355331
30
2.999999999985558
 70
     32
  0
VERTEX
  8
MY3DLAYER
10
167.14470062876995
20
124.77474383963343
30
2.9999999999856084
 70
     32
  0
VERTEX
  8
MY3DLAYER
10
167.03430229413232
20
124.63608763551106
30
2.9999999999856537
 70
     32
  0
VERTEX
  8
MY3DLAYER
10
166.93231197406445
20
124.491496661557
30
2.999999999985695
 70
     32
  0
VERTEX
  8
MY3DLAYER
10
166.8389568426064
20
124.34140058814194
30
2.999999999985733
 70
     32
  0
VERTEX
  8
MY3DLAYER
10
166.75446407379832
20
124.18622908563661
30
2.999999999985768
 70
     32
  0
VERTEX
  8
MY3DLAYER
10
166.67906084168024
20
124.02641182441175
30
2.999999999985799
 70
     32
  0
VERTEX
  8
MY3DLAYER
10
166.61297432029232
20
123.86237847483812
30
2.9999999999858256
 70
     32
  0
VERTEX
  8
MY3DLAYER
10
166.5564316836746
20
123.69455870728645
30
2.9999999999858487
 70
     32
  0
VERTEX
  8
MY3DLAYER
10
166.50966010586714
20
123.52338219212746
30
2.9999999999858677
 70
     32
  0
VERTEX
  8
MY3DLAYER
10
166.47288676091014
20
123.34927859973189
30
2.999999999985883
 70
     32
  0
VERTEX
  8
MY3DLAYER
10
166.4463388228436
20
123.17267760047045
30
2.9999999999858935
 70
     32
  0
VERTEX
  8
MY3DLAYER
10
166.4302434657076
20
122.99400886471393
30
2.9999999999859
 70
     32
  0
VERTEX
  8
MY3DLAYER
10
166.4248278635423
20
122.81370206283302
30
2.9999999999859024
 70
     32
  0
VERTEX
  8
MY3DLAYER
10
166.42563526112602
20
122.74564558849184
30
2.999999999985902
 70
     32
  0
VERTEX
  8
MY3DLAYER
10
166.42805755141822
20
122.67726341379279
30
2.999999999985901
 70
     32
  0
VERTEX
  8
MY3DLAYER
10
166.43209488073066
20
122.60863092313659
30
2.9999999999858993
 70
     32
  0
VERTEX
  8
MY3DLAYER
10
166.4377473953751
20
122.53982350092403
30
2.999999999985897
 70
     32
  0
VERTEX
  8
MY3DLAYER
10
166.44501524166324
20
122.47091653155583
30
2.999999999985894
 70
     32
  0
VERTEX
  8
MY3DLAYER
10
166.4538985659068
20
122.40198539943277
30
2.9999999999858904
 70
     32
  0
VERTEX
  8
MY3DLAYER
10
166.46439751441753
20
122.33310548895564
30
2.9999999999858864
 70
     32
  0
VERTEX
  8
MY3DLAYER
10
166.47651223350712
20
122.26435218452508
30
2.999999999985881
 70
     32
  0
VERTEX
  8
MY3DLAYER
10
166.49024286948733
20
122.19580087054197
30
2.9999999999858757
 70
     32
  0
VERTEX
  8
MY3DLAYER
10
166.50558956866988
20
122.12752693140699
30
2.999999999985869
 70
     32
  0
VERTEX
  8
MY3DLAYER
10
166.5225524773665
20
122.0596057515209
30
2.9999999999858624
 70
     32
  0
VERTEX
  8
MY3DLAYER
10
166.54113174188893
20
121.99211271528448
30
2.999999999985855
 70
     32
  0
VERTEX
  8
MY3DLAYER
10
166.56132750854886
20
121.92512320709844
30
2.9999999999858464
 70
     32
  0
VERTEX
  8
MY3DLAYER
10
166.58313992365808
20
121.8587126113636
30
2.9999999999858376
 70
     32
  0
VERTEX
  8
MY3DLAYER
10
166.60656913352824
20
121.79295631248064
30
2.9999999999858282
 70
     32
  0
VERTEX
  8
MY3DLAYER
10
166.63161528447114
20
121.72792969485039
30
2.999999999985818
 70
     32
  0
VERTEX
  8
MY3DLAYER
10
166.7703122839507
20
121.41282354608467
30
2.9999999999857607
 70
     32
  0
VERTEX
  8
MY3DLAYER
10
166.92514626102758
20
121.10013677691352
30
2.9999999999856977
 70
     32
  0
VERTEX
  8
MY3DLAYER
10
167.09205173740625
20
120.78865809239547
30
2.9999999999856293
 70
     32
  0
VERTEX
  8
MY3DLAYER
10
167.26696323479118
20
120.4771761975891
30
2.9999999999855578
 70
     32
  0
VERTEX
  8
MY3DLAYER
10
167.44581527488685
20
120.16447979755294
30
2.9999999999854845
 70
     32
  0
VERTEX
  8
MY3DLAYER
10
167.62454237939784
20
119.84935759734557
30
2.9999999999854112
 70
     32
  0
VERTEX
  8
MY3DLAYER
10
167.79907907002854
20
119.53059830202558
30
2.9999999999853397
 70
     32
  0
VERTEX
  8
MY3DLAYER
10
167.96535986848352
20
119.20699061665147
30
2.999999999985272
 70
     32
  0
VERTEX
  8
MY3DLAYER
10
168.11931929646727
20
118.87732324628182
30
2.999999999985206
 70
     32
  0
VERTEX
  8
MY3DLAYER
10
168.2568918756842
20
118.54038489597522
30
2.9999999999851497
 70
     32
  0
VERTEX
  8
MY3DLAYER
10
168.37401212783888
20
118.19496427079018
30
2.9999999999851017
 70
     32
  0
VERTEX
  8
MY3DLAYER
10
168.4666145746358
20
117.8398500757853
30
2.999999999985064
 70
     32
  0
VERTEX
  8
MY3DLAYER
10
168.53063373777945
20
117.47383101601913
30
2.9999999999850377
 70
     32
  0
VERTEX
  8
MY3DLAYER
10
168.56200413897432
20
117.09569579655022
30
2.999999999985025
 70
     32
  0
VERTEX
  8
MY3DLAYER
10
168.55666029992486
20
116.70423312243715
30
2.9999999999850266
 70
     32
  0
VERTEX
  8
MY3DLAYER
10
168.51053674233563
20
116.29823169873843
30
2.9999999999850453
 70
     32
  0
VERTEX
  8
MY3DLAYER
10
168.77577701793675
20
116.49839634210629
30
2.9999999999849374
 70
     32
  0
VERTEX
  8
MY3DLAYER
10
169.0100849437353
20
116.69810912950071
30
2.9999999999848415
 70
     32
  0
VERTEX
  8
MY3DLAYER
10
169.21484958446763
20
116.89731918937888
30
2.999999999984758
 70
     32
  0
VERTEX
  8
MY3DLAYER
10
169.39146000487008
20
117.09597565019797
30
2.9999999999846856
 70
     32
  0
VERTEX
  8
MY3DLAYER
10
169.5413052696789
20
117.29402764041521
30
2.9999999999846243
 70
     32
  0
VERTEX
  8
MY3DLAYER
10
169.6657744436305
20
117.49142428848769
30
2.9999999999845737
 70
     32
  0
VERTEX
  8
MY3DLAYER
10
169.76625659146114
20
117.68811472287267
30
2.9999999999845324
 70
     32
  0
VERTEX
  8
MY3DLAYER
10
169.8441407779072
20
117.88404807202727
30
2.9999999999845004
 70
     32
  0
VERTEX
  8
MY3DLAYER
10
169.90081606770494
20
118.07917346440871
30
2.9999999999844773
 70
     32
  0
VERTEX
  8
MY3DLAYER
10
169.93767152559076
20
118.27344002847414
30
2.9999999999844627
 70
     32
  0
VERTEX
  8
MY3DLAYER
10
169.95609621630092
20
118.46679689268075
30
2.9999999999844547
 70
     32
  0
VERTEX
  8
MY3DLAYER
10
169.95747920457177
20
118.65919318548572
30
2.999999999984454
 70
     32
  0
VERTEX
  8
MY3DLAYER
10
169.94320955513965
20
118.8505780353462
30
2.9999999999844604
 70
     32
  0
VERTEX
  8
MY3DLAYER
10
169.91467633274084
20
119.0409005707194
30
2.999999999984472
 70
     32
  0
VERTEX
  8
MY3DLAYER
10
169.8732686021117
20
119.23010992006252
30
2.9999999999844915
 70
     32
  0
VERTEX
  8
MY3DLAYER
10
169.82037542798855
20
119.41815521183267
30
2.9999999999845133
 70
     32
  0
SEQEND
  0
POLYLINE
 8
Layer0
 66
     1
70
    8
 10
0.0
 20
 0.0
 30
0.0
  0
VERTEX
  8
MY3DLAYER
10
153.84229801379945
20
117.52223381377003
30
2.9999999999910436
 70
     32
  0
VERTEX
  8
MY3DLAYER
10
151.91181882225635
20
117.52223381376945
30
2.999999999991833
 70
     32
  0
VERTEX
  8
MY3DLAYER
10
150.8948830846983
20
111.42033800615341
30
2.9999999999922493
 70
     32
  0
VERTEX
  8
MY3DLAYER
10
152.82536227624144
20
111.420338006154
30
2.9999999999914597
 70
     32
  0
VERTEX
  8
MY3DLAYER
10
153.84229801379945
20
117.52223381377003
30
2.9999999999910436
 70
     32
  0
SEQEND
  0
POLYLINE
 8
Layer0
 66
     1
70
    8
 10
0.0
 20
 0.0
 30
0.0
  0
VERTEX
  8
MY3DLAYER
10
146.99936819232394
20
117.52223381376798
30
2.999999999993842
 70
     32
  0
VERTEX
  8
MY3DLAYER
10
145.05161081748204
20
117.52223381376741
30
2.9999999999946385
 70
     32
  0
VERTEX
  8
MY3DLAYER
10
144.39669161734508
20
113.6439976754485
30
2.9999999999949054
 70
     32
  0
VERTEX
  8
MY3DLAYER
10
144.3847772084869
20
113.55754001481887
30
2.9999999999949103
 70
     32
  0
VERTEX
  8
MY3DLAYER
10
144.37490569845386
20
113.47266948153008
30
2.9999999999949143
 70
     32
  0
VERTEX
  8
MY3DLAYER
10
144.36710265668358
20
113.38936133259679
30
2.9999999999949174
 70
     32
  0
VERTEX
  8
MY3DLAYER
10
144.3613936526137
20
113.30759082503361
30
2.9999999999949196
 70
     32
  0
VERTEX
  8
MY3DLAYER
10
144.35780425568188
20
113.22733321585518
30
2.9999999999949214
 70
     32
  0
VERTEX
  8
MY3DLAYER
10
144.35636003532568
20
113.14856376207607
30
2.999999999994922
 70
     32
  0
VERTEX
  8
MY3DLAYER
10
144.35708656098276
20
113.07125772071096
30
2.9999999999949214
 70
     32
  0
VERTEX
  8
MY3DLAYER
10
144.36000940209072
20
112.99539034877445
30
2.9999999999949205
 70
     32
  0
VERTEX
  8
MY3DLAYER
10
144.36515412808723
20
112.92093690328113
30
2.9999999999949183
 70
     32
  0
VERTEX
  8
MY3DLAYER
10
144.37254630840988
20
112.84787264124567
30
2.999999999994915
 70
     32
  0
VERTEX
  8
MY3DLAYER
10
144.3822115124963
20
112.77617281968267
30
2.999999999994911
 70
     32
  0
VERTEX
  8
MY3DLAYER
10
144.39417530978412
20
112.70581269560677
30
2.9999999999949063
 70
     32
  0
VERTEX
  8
MY3DLAYER
10
144.40846326971098
20
112.63676752603256
30
2.999999999994902
 70
     32
  0
VERTEX
  8
MY3DLAYER
10
144.4251009617145
20
112.5690125679747
30
2.9999999999948948
 70
     32
  0
VERTEX
  8
MY3DLAYER
10
144.4441139552323
20
112.50252307844778
30
2.999999999994887
 70
     32
  0
VERTEX
  8
MY3DLAYER
10
144.465527819702
20
112.43727431446642
30
2.9999999999948783
 70
     32
  0
VERTEX
  8
MY3DLAYER
10
144.48915735140397
20
112.37345252960658
30
2.999999999994869
 70
     32
  0
VERTEX
  8
MY3DLAYER
10
144.5147832993221
20
112.31127688504205
30
2.9999999999948583
 70
     32
  0
VERTEX
  8
MY3DLAYER
10
144.54238016194918
20
112.25077191892177
30
2.999999999994847
 70
     32
  0
VERTEX
  8
MY3DLAYER
10
144.57192243777803
20
112.1919621693947
30
2.9999999999948352
 70
     32
  0
VERTEX
  8
MY3DLAYER
10
144.60338462530146
20
112.13487217460981
30
2.999999999994822
 70
     32
  0
VERTEX
  8
MY3DLAYER
10
144.6367412230123
20
112.07952647271603
30
2.999999999994808
 70
     32
  0
VERTEX
  8
MY3DLAYER
10
144.6719667294034
20
112.02594960186235
30
2.999999999994794
 70
     32
  0
VERTEX
  8
MY3DLAYER
10
144.70903564296754
20
111.97416610019772
30
2.999999999994779
 70
     32
  0
VERTEX
  8
MY3DLAYER
10
144.74792246219758
20
111.92420050587111
30
2.999999999994763
 70
     32
  0
VERTEX
  8
MY3DLAYER
10
144.7886016855863
20
111.87607735703148
30
2.999999999994746
 70
     32
  0
VERTEX
  8
MY3DLAYER
10
144.8310478116265
20
111.82982119182773
30
2.999999999994729
 70
     32
  0
VERTEX
  8
MY3DLAYER
10
144.87523533881102
20
111.7854565484089
30
2.999999999994711
 70
     32
  0
VERTEX
  8
MY3DLAYER
10
144.92113876563272
20
111.74300796492388
30
2.999999999994692
 70
     32
  0
VERTEX
  8
MY3DLAYER
10
144.96873259058438
20
111.70249997952168
30
2.9999999999946727
 70
     32
  0
VERTEX
  8
MY3DLAYER
10
145.01799131215884
20
111.66395713035124
30
2.9999999999946523
 70
     32
  0
VERTEX
  8
MY3DLAYER
10
145.0688894288489
20
111.62740395556149
30
2.999999999994632
 70
     32
  0
VERTEX
  8
MY3DLAYER
10
145.12444156070595
20
111.59306018882316
30
2.9999999999946088
 70
     32
  0
VERTEX
  8
MY3DLAYER
10
145.18123232877707
20
111.56111260520893
30
2.9999999999945857
 70
     32
  0
VERTEX
  8
MY3DLAYER
10
145.23928677452363
20
111.53153630497093
30
2.9999999999945617
 70
     32
  0
VERTEX
  8
MY3DLAYER
10
145.29862993940685
20
111.50430638836114
30
2.9999999999945377
 70
     32
  0
VERTEX
  8
MY3DLAYER
10
145.35928686488808
20
111.47939795563167
30
2.999999999994513
 70
     32
  0
VERTEX
  8
MY3DLAYER
10
145.42128259242867
20
111.45678610703456
30
2.9999999999944875
 70
     32
  0
VERTEX
  8
MY3DLAYER
10
145.48464216348978
20
111.43644594282188
30
2.9999999999944618
 70
     32
  0
VERTEX
  8
MY3DLAYER
10
145.5493906195329
20
111.41835256324565
30
2.999999999994435
 70
     32
  0
VERTEX
  8
MY3DLAYER
10
145.61555300201917
20
111.40248106855793
30
2.999999999994408
 70
     32
  0
VERTEX
  8
MY3DLAYER
10
145.68315435240999
20
111.3888065590108
30
2.9999999999943805
 70
     32
  0
VERTEX
  8
MY3DLAYER
10
145.75221971216664
20
111.37730413485635
30
2.999999999994352
 70
     32
  0
VERTEX
  8
MY3DLAYER
10
145.8227741227504
20
111.36794889634653
30
2.999999999994323
 70
     32
  0
VERTEX
  8
MY3DLAYER
10
145.8948426256226
20
111.36071594373351
30
2.999999999994294
 70
     32
  0
VERTEX
  8
MY3DLAYER
10
145.96845026224452
20
111.35558037726926
30
2.9999999999942637
 70
     32
  0
VERTEX
  8
MY3DLAYER
10
146.0436220740775
20
111.35251729720589
30
2.999999999994233
 70
     32
  0
VERTEX
  8
MY3DLAYER
10
146.12038310258282
20
111.35150180379546
30
2.9999999999942015
 70
     32
  0
VERTEX
  8
MY3DLAYER
10
146.2040018489155
20
111.35271760451108
30
2.9999999999941673
 70
     32
  0
VERTEX
  8
MY3DLAYER
10
146.2867860772529
20
111.3563818500641
30
2.9999999999941336
 70
     32
  0
VERTEX
  8
MY3DLAYER
10
146.3687107262771
20
111.3625198858262
30
2.9999999999941003
 70
     32
  0
VERTEX
  8
MY3DLAYER
10
146.4497507346702
20
111.37115705716903
30
2.999999999994067
 70
     32
  0
VERTEX
  8
MY3DLAYER
10
146.52988104111432
20
111.3823187094642
30
2.999999999994034
 70
     32
  0
VERTEX
  8
MY3DLAYER
10
146.60907658429159
20
111.39603018808346
30
2.9999999999940017
 70
     32
  0
VERTEX
  8
MY3DLAYER
10
146.68731230288407
20
111.4123168383984
30
2.9999999999939697
 70
     32
  0
VERTEX
  8
MY3DLAYER
10
146.76456313557384
20
111.43120400578076
30
2.999999999993938
 70
     32
  0
VERTEX
  8
MY3DLAYER
10
146.84080402104308
20
111.45271703560212
30
2.999999999993907
 70
     32
  0
VERTEX
  8
MY3DLAYER
10
146.91600989797385
20
111.47688127323421
30
2.9999999999938765
 70
     32
  0
VERTEX
  8
MY3DLAYER
10
146.99015570504827
20
111.50372206404866
30
2.999999999993846
 70
     32
  0
VERTEX
  8
MY3DLAYER
10
147.06321638094843
20
111.53326475341719
30
2.999999999993816
 70
     32
  0
VERTEX
  8
MY3DLAYER
10
147.13516686435642
20
111.56553468671137
30
2.9999999999937867
 70
     32
  0
VERTEX
  8
MY3DLAYER
10
147.20598209395442
20
111.60055720930296
30
2.999999999993758
 70
     32
  0
VERTEX
  8
MY3DLAYER
10
147.2756370084244
20
111.63835766656356
30
2.9999999999937295
 70
     32
  0
VERTEX
  8
MY3DLAYER
10
147.34410654644861
20
111.67896140386488
30
2.9999999999937015
 70
     32
  0
VERTEX
  8
MY3DLAYER
10
147.4140004906329
20
111.7189418972716
30
2.999999999993673
 70
     32
  0
VERTEX
  8
MY3DLAYER
10
147.4814982868079
20
111.76126901279471
30
2.999999999993645
 70
     32
  0
VERTEX
  8
MY3DLAYER
10
147.54662482970508
20
111.80586721951268
30
2.9999999999936184
 70
     32
  0
VERTEX
  8
MY3DLAYER
10
147.60940501405602
20
111.85266098650399
30
2.9999999999935927
 70
     32
  0
VERTEX
  8
MY3DLAYER
10
147.66986373459233
20
111.90157478284719
30
2.9999999999935683
 70
     32
  0
VERTEX
  8
MY3DLAYER
10
147.7280258860454
20
111.95253307762076
30
2.9999999999935443
 70
     32
  0
VERTEX
  8
MY3DLAYER
10
147.78391636314694
20
112.00546033990318
30
2.9999999999935216
 70
     32
  0
VERTEX
  8
MY3DLAYER
10
147.83756006062836
20
112.06028103877298
30
2.9999999999934994
 70
     32
  0
VERTEX
  8
MY3DLAYER
10
147.88898187322127
20
112.11691964330865
30
2.9999999999934785
 70
     32
  0
VERTEX
  8
MY3DLAYER
10
147.93820669565721
20
112.1753006225887
30
2.9999999999934586
 70
     32
  0
VERTEX
  8
MY3DLAYER
10
147.9852594226677
20
112.2353484456916
30
2.999999999993439
 70
     32
  0
VERTEX
  8
MY3DLAYER
10
148.03016494898426
20
112.2969875816959
30
2.999999999993421
 70
     32
  0
VERTEX
  8
MY3DLAYER
10
148.0729481693385
20
112.36014249968008
30
2.999999999993403
 70
     32
  0
VERTEX
  8
MY3DLAYER
10
148.11363397846193
20
112.42473766872263
30
2.9999999999933866
 70
     32
  0
VERTEX
  8
MY3DLAYER
10
148.15224727108605
20
112.49069755790205
30
2.999999999993371
 70
     32
  0
VERTEX
  8
MY3DLAYER
10
148.18881294194244
20
112.55794663629688
30
2.999999999993356
 70
     32
  0
VERTEX
  8
MY3DLAYER
10
148.24037039024518
20
112.55794663629688
30
2.9999999999933347
 70
     32
  0
VERTEX
  8
MY3DLAYER
10
148.05086186605962
20
111.42033800615258
30
2.9999999999934124
 70
     32
  0
VERTEX
  8
MY3DLAYER
10
149.91222547063225
20
111.42033800615313
30
2.9999999999926508
 70
     32
  0
VERTEX
  8
MY3DLAYER
10
150.9291612081903
20
117.52223381376915
30
2.999999999992235
 70
     32
  0
VERTEX
  8
MY3DLAYER
10
148.9816832179623
20
117.52223381376857
30
2.9999999999930314
 70
     32
  0
VERTEX
  8
MY3DLAYER
10
148.41287883154683
20
114.05757208924041
30
2.999999999993263
 70
     32
  0
VERTEX
  8
MY3DLAYER
10
148.4058130162902
20
114.01292302536696
30
2.9999999999932663
 70
     32
  0
VERTEX
  8
MY3DLAYER
10
148.3975598054859
20
113.96943362992363
30
2.9999999999932694
 70
     32
  0
VERTEX
  8
MY3DLAYER
10
148.38814454889496
20
113.92705365862685
30
2.9999999999932734
 70
     32
  0
VERTEX
  8
MY3DLAYER
10
148.37759259627833
20
113.88573286719304
30
2.999999999993278
 70
     32
  0
VERTEX
  8
MY3DLAYER
10
148.3659292973971
20
113.84542101133874
30
2.9999999999932823
 70
     32
  0
VERTEX
  8
MY3DLAYER
10
148.3531800020122
20
113.80606784678038
30
2.9999999999932876
 70
     32
  0
VERTEX
  8
MY3DLAYER
10
148.33937005988474
20
113.7676231292344
30
2.9999999999932934
 70
     32
  0
VERTEX
  8
MY3DLAYER
10
148.3245248207757
20
113.73003661441726
30
2.999999999993299
 70
     32
  0
VERTEX
  8
MY3DLAYER
10
148.3086696344461
20
113.69325805804542
30
2.999999999993306
 70
     32
  0
VERTEX
  8
MY3DLAYER
10
148.2918298506569
20
113.65723721583537
30
2.9999999999933125
 70
     32
  0
VERTEX
  8
MY3DLAYER
10
148.27403081916924
20
113.62192384350352
30
2.99999999999332
 70
     32
  0
VERTEX
  8
MY3DLAYER
10
148.255297889744
20
113.58726769676636
30
2.9999999999933276
 70
     32
  0
VERTEX
  8
MY3DLAYER
10
148.2356564121423
20
113.55321853134033
30
2.9999999999933356
 70
     32
  0
VERTEX
  8
MY3DLAYER
10
148.2151317361251
20
113.51972610294189
30
2.999999999993344
 70
     32
  0
VERTEX
  8
MY3DLAYER
10
148.19374921145345
20
113.48674016728755
30
2.999999999993353
 70
     32
  0
VERTEX
  8
MY3DLAYER
10
148.17153418788834
20
113.45421048009369
30
2.9999999999933618
 70
     32
  0
VERTEX
  8
MY3DLAYER
10
148.14870581528183
20
113.42533646806916
30
2.999999999993371
 70
     32
  0
VERTEX
  8
MY3DLAYER
10
148.12544939851765
20
113.39692071775455
30
2.9999999999933804
 70
     32
  0
VERTEX
  8
MY3DLAYER
10
148.1017395199043
20
113.36901318582632
30
2.9999999999933906
 70
     32
  0
VERTEX
  8
MY3DLAYER
10
148.07755076175036
20
113.34166382896096
30
2.9999999999934004
 70
     32
  0
VERTEX
  8
MY3DLAYER
10
148.05285770636436
20
113.31492260383494
30
2.99999999999341
 70
     32
  0
VERTEX
  8
MY3DLAYER
10
148.02763493605482
20
113.28883946712477
30
2.999999999993421
 70
     32
  0
VERTEX
  8
MY3DLAYER
10
148.0018570331303
20
113.26346437550696
30
2.999999999993431
 70
     32
  0
VERTEX
  8
MY3DLAYER
10
147.97549857989932
20
113.23884728565793
30
2.999999999993442
 70
     32
  0
VERTEX
  8
MY3DLAYER
10
147.94853415867044
20
113.21503815425423
30
2.999999999993453
 70
     32
  0
VERTEX
  8
MY3DLAYER
10
147.9209383517522
20
113.19208693797229
30
2.9999999999934643
 70
     32
  0
VERTEX
  8
MY3DLAYER
10
147.89268574145308
20
113.17004359348866
30
2.999999999993476
 70
     32
  0
VERTEX
  8
MY3DLAYER
10
147.86375091008168
20
113.14895807747979
30
2.999999999993488
 70
     32
  0
VERTEX
  8
MY3DLAYER
10
147.83410843994653
20
113.12888034662218
30
2.9999999999935
 70
     32
  0
VERTEX
  8
MY3DLAYER
10
147.80373291335616
20
113.10986035759234
30
2.9999999999935123
 70
     32
  0
VERTEX
  8
MY3DLAYER
10
147.77259891261912
20
113.09194806706668
30
2.9999999999935247
 70
     32
  0
VERTEX
  8
MY3DLAYER
10
147.7406810200439
20
113.07519343172177
30
2.999999999993538
 70
     32
  0
VERTEX
  8
MY3DLAYER
10
147.7083562755546
20
113.05963581867886
30
2.9999999999935514
 70
     32
  0
VERTEX
  8
MY3DLAYER
10
147.67600226767456
20
113.045264545022
30
2.9999999999935643
 70
     32
  0
VERTEX
  8
MY3DLAYER
10
147.64359432134887
20
113.03205441210925
30
2.9999999999935776
 70
     32
  0
VERTEX
  8
MY3DLAYER
10
147.61110776152256
20
113.0199802212987
30
2.999999999993591
 70
     32
  0
VERTEX
  8
MY3DLAYER
10
147.57851791314073
20
113.00901677394847
30
2.9999999999936042
 70
     32
  0
VERTEX
  8
MY3DLAYER
10
147.54580010114847
20
112.99913887141665
30
2.9999999999936175
 70
     32
  0
VERTEX
  8
MY3DLAYER
10
147.5129296504908
20
112.99032131506134
30
2.999999999993631
 70
     32
  0
VERTEX
  8
MY3DLAYER
10
147.4798818861128
20
112.98253890624063
30
2.9999999999936446
 70
     32
  0
VERTEX
  8
MY3DLAYER
10
147.44663213295954
20
112.97576644631262
30
2.999999999993658
 70
     32
  0
VERTEX
  8
MY3DLAYER
10
147.41315571597607
20
112.9699787366354
30
2.9999999999936717
 70
     32
  0
VERTEX
  8
MY3DLAYER
10
147.3794279601075
20
112.96515057856708
30
2.9999999999936855
 70
     32
  0
VERTEX
  8
MY3DLAYER
10
147.34542419029884
20
112.96125677346575
30
2.9999999999936997
 70
     32
  0
VERTEX
  8
MY3DLAYER
10
147.31111973149524
20
112.95827212268952
30
2.999999999993714
 70
     32
  0
VERTEX
  8
MY3DLAYER
10
147.27648990864165
20
112.95617142759644
30
2.9999999999937277
 70
     32
  0
VERTEX
  8
MY3DLAYER
10
147.24151004668326
20
112.95492948954467
30
2.999999999993742
 70
     32
  0
VERTEX
  8
MY3DLAYER
10
147.20615547056508
20
112.95452110989227
30
2.9999999999937565
 70
     32
  0
VERTEX
  8
MY3DLAYER
10
147.14918674618644
20
112.95553813104102
30
2.9999999999937796
 70
     32
  0
VERTEX
  8
MY3DLAYER
10
147.0945927426735
20
112.95862314201321
30
2.9999999999938023
 70
     32
  0
VERTEX
  8
MY3DLAYER
10
147.04232277053714
20
112.96382698383518
30
2.999999999993823
 70
     32
  0
VERTEX
  8
MY3DLAYER
10
146.99232614028801
20
112.97120049753333
30
2.9999999999938436
 70
     32
  0
VERTEX
  8
MY3DLAYER
10
146.94455216243693
20
112.98079452413401
30
2.9999999999938636
 70
     32
  0
VERTEX
  8
MY3DLAYER
10
146.89895014749473
20
112.99265990466364
30
2.9999999999938822
 70
     32
  0
VERTEX
  8
MY3DLAYER
10
146.85546940597203
20
113.00684748014855
30
2.9999999999939
 70
     32
  0
VERTEX
  8
MY3DLAYER
10
146.81405924837975
20
113.02340809161514
30
2.999999999993917
 70
     32
  0
VERTEX
  8
MY3DLAYER
10
146.77466898522857
20
113.04239258008981
30
2.999999999993933
 70
     32
  0
VERTEX
  8
MY3DLAYER
10
146.7372479270293
20
113.06385178659889
30
2.999999999993948
 70
     32
  0
VERTEX
  8
MY3DLAYER
10
146.70174538429274
20
113.08783655216877
30
2.9999999999939626
 70
     32
  0
VERTEX
  8
MY3DLAYER
10
146.66811066752956
20
113.11439771782584
30
2.999999999993977
 70
     32
  0
VERTEX
  8
MY3DLAYER
10
146.63629308725064
20
113.14358612459645
30
2.9999999999939893
 70
     32
  0
VERTEX
  8
MY3DLAYER
10
146.60624195396667
20
113.17545261350702
30
2.9999999999940017
 70
     32
  0
VERTEX
  8
MY3DLAYER
10
146.5779065781885
20
113.21004802558389
30
2.9999999999940132
 70
     32
  0
VERTEX
  8
MY3DLAYER
10
146.5512362704268
20
113.24742320185345
30
2.9999999999940243
 70
     32
  0
VERTEX
  8
MY3DLAYER
10
146.526395112457
20
113.2837807752806
30
2.9999999999940345
 70
     32
  0
VERTEX
  8
MY3DLAYER
10
146.50359787456821
20
113.32175327360487
30
2.999999999994044
 70
     32
  0
VERTEX
  8
MY3DLAYER
10
146.48286998030434
20
113.36134083853959
30
2.9999999999940523
 70
     32
  0
VERTEX
  8
MY3DLAYER
10
146.46423685320934
20
113.40254361179811
30
2.99999999999406
 70
     32
  0
VERTEX
  8
MY3DLAYER
10
146.44772391682716
20
113.44536173509381
30
2.9999999999940665
 70
     32
  0
VERTEX
  8
MY3DLAYER
10
146.4333565947017
20
113.48979535014004
30
2.9999999999940727
 70
     32
  0
VERTEX
  8
MY3DLAYER
10
146.42116031037693
20
113.53584459865017
30
2.9999999999940776
 70
     32
  0
VERTEX
  8
MY3DLAYER
10
146.4111604873967
20
113.58350962233754
30
2.9999999999940816
 70
     32
  0
VERTEX
  8
MY3DLAYER
10
146.40338254930504
20
113.63279056291556
30
2.9999999999940847
 70
     32
  0
VERTEX
  8
MY3DLAYER
10
146.3978519196458
20
113.68368756209752
30
2.999999999994087
 70
     32
  0
VERTEX
  8
MY3DLAYER
10
146.39459402196297
20
113.7362007615968
30
2.9999999999940883
 70
     32
  0
VERTEX
  8
MY3DLAYER
10
146.39363427980044
20
113.79033030312681
30
2.9999999999940887
 70
     32
  0
VERTEX
  8
MY3DLAYER
10
146.3949981167022
20
113.84607632840084
30
2.9999999999940883
 70
     32
  0
VERTEX
  8
MY3DLAYER
10
146.39871095621208
20
113.90343897913232
30
2.9999999999940865
 70
     32
  0
VERTEX
  8
MY3DLAYER
10
146.40479822187413
20
113.96241839703454
30
2.9999999999940843
 70
     32
  0
VERTEX
  8
MY3DLAYER
10
146.4132853372322
20
114.02301472382089
30
2.999999999994081
 70
     32
  0
VERTEX
  8
MY3DLAYER
10
146.99936819232394
20
117.52223381376798
30
2.999999999993842
 70
     32
  0
SEQEND
  0
POLYLINE
 8
Layer0
 66
     1
70
    8
 10
0.0
 20
 0.0
 30
0.0
  0
VERTEX
  8
MY3DLAYER
10
165.44244991947178
20
109.12812080567423
30
2.9999999999863003
 70
     32
  0
VERTEX
  8
MY3DLAYER
10
165.30360779896273
20
109.49290305982989
30
2.999999999986357
 70
     32
  0
VERTEX
  8
MY3DLAYER
10
165.14774894515585
20
109.85116665536901
30
2.999999999986421
 70
     32
  0
VERTEX
  8
MY3DLAYER
10
164.97805456588432
20
110.20407367402919
30
2.9999999999864904
 70
     32
  0
VERTEX
  8
MY3DLAYER
10
164.79770586898113
20
110.55278619754799
30
2.999999999986564
 70
     32
  0
VERTEX
  8
MY3DLAYER
10
164.60988406227938
20
110.89846630766293
30
2.9999999999866414
 70
     32
  0
VERTEX
  8
MY3DLAYER
10
164.4177703536122
20
111.24227608611157
30
2.99999999998672
 70
     32
  0
VERTEX
  8
MY3DLAYER
10
164.22454595081265
20
111.58537761463145
30
2.999999999986799
 70
     32
  0
VERTEX
  8
MY3DLAYER
10
164.03339206171387
20
111.92893297496016
30
2.999999999986877
 70
     32
  0
VERTEX
  8
MY3DLAYER
10
163.84748989414885
20
112.27410424883519
30
2.999999999986953
 70
     32
  0
VERTEX
  8
MY3DLAYER
10
163.6700206559508
20
112.62205351799412
30
2.999999999987026
 70
     32
  0
VERTEX
  8
MY3DLAYER
10
163.50416555495272
20
112.97394286417449
30
2.999999999987092
 70
     32
  0
VERTEX
  8
MY3DLAYER
10
163.35310579898774
20
113.33093436911388
30
2.9999999999871543
 70
     32
  0
VERTEX
  8
MY3DLAYER
10
163.2200225958889
20
113.69419011454977
30
2.9999999999872085
 70
     32
  0
VERTEX
  8
MY3DLAYER
10
163.10809715348938
20
114.06487218221977
30
2.999999999987254
 70
     32
  0
VERTEX
  8
MY3DLAYER
10
163.02051067962216
20
114.4441426538614
30
2.99999999998729
 70
     32
  0
VERTEX
  8
MY3DLAYER
10
162.96044438212044
20
114.83316361121224
30
2.999999999987315
 70
     32
  0
VERTEX
  8
MY3DLAYER
10
162.83139997354164
20
114.72313938141563
30
2.9999999999873674
 70
     32
  0
VERTEX
  8
MY3DLAYER
10
162.70939501306944
20
114.60660309521474
30
2.9999999999874176
 70
     32
  0
VERTEX
  8
MY3DLAYER
10
162.5946069454776
20
114.4839079334453
30
2.9999999999874642
 70
     32
  0
VERTEX
  8
MY3DLAYER
10
162.48721321554
20
114.355407076943
30
2.999999999987508
 70
     32
  0
VERTEX
  8
MY3DLAYER
10
162.38739126803046
20
114.2214537065435
30
2.999999999987549
 70
     32
  0
VERTEX
  8
MY3DLAYER
10
162.29531854772281
20
114.08240100308254
30
2.999999999987587
 70
     32
  0
VERTEX
  8
MY3DLAYER
10
162.2111724993909
20
113.93860214739578
30
2.999999999987621
 70
     32
  0
VERTEX
  8
MY3DLAYER
10
162.13513056780852
20
113.79041032031895
30
2.999999999987652
 70
     32
  0
VERTEX
  8
MY3DLAYER
10
162.06737019774954
20
113.63817870268771
30
2.9999999999876796
 70
     32
  0
VERTEX
  8
MY3DLAYER
10
162.00806883398778
20
113.48226047533777
30
2.999999999987704
 70
     32
  0
VERTEX
  8
MY3DLAYER
10
161.95740392129704
20
113.32300881910484
30
2.999999999987725
 70
     32
  0
VERTEX
  8
MY3DLAYER
10
161.9155529044512
20
113.16077691482458
30
2.999999999987742
 70
     32
  0
VERTEX
  8
MY3DLAYER
10
161.88269322822407
20
112.99591794333271
30
2.999999999987755
 70
     32
  0
VERTEX
  8
MY3DLAYER
10
161.8590023373895
20
112.82878508546493
30
2.999999999987765
 70
     32
  0
VERTEX
  8
MY3DLAYER
10
161.84465767672128
20
112.65973152205693
30
2.999999999987772
 70
     32
  0
VERTEX
  8
MY3DLAYER
10
161.83983669099328
20
112.48911043394438
30
2.9999999999877742
 70
     32
  0
VERTEX
  8
MY3DLAYER
10
161.84084749253503
20
112.40851683677757
30
2.9999999999877733
 70
     32
  0
VERTEX
  8
MY3DLAYER
10
161.84387974945503
20
112.32832766508419
30
2.9999999999877724
 70
     32
  0
VERTEX
  8
MY3DLAYER
10
161.84893324019552
20
112.24854285511411
30
2.9999999999877702
 70
     32
  0
VERTEX
  8
MY3DLAYER
10
161.85600774319875
20
112.16916234311725
30
2.9999999999877676
 70
     32
  0
VERTEX
  8
MY3DLAYER
10
161.86510303690693
20
112.09018606534347
30
2.9999999999877636
 70
     32
  0
VERTEX
  8
MY3DLAYER
10
161.87621889976236
20
112.0116139580427
30
2.999999999987759
 70
     32
  0
VERTEX
  8
MY3DLAYER
10
161.88935511020722
20
111.93344595746477
30
2.999999999987754
 70
     32
  0
VERTEX
  8
MY3DLAYER
10
161.90451144668378
20
111.85568199985961
30
2.9999999999877476
 70
     32
  0
VERTEX
  8
MY3DLAYER
10
161.9216876876343
20
111.77832202147714
30
2.9999999999877405
 70
     32
  0
VERTEX
  8
MY3DLAYER
10
161.94088361150096
20
111.70136595856718
30
2.9999999999877325
 70
     32
  0
VERTEX
  8
MY3DLAYER
10
161.96209899672607
20
111.62481374737966
30
2.9999999999877236
 70
     32
  0
VERTEX
  8
MY3DLAYER
10
161.9853336217518
20
111.54866532416446
30
2.9999999999877143
 70
     32
  0
VERTEX
  8
MY3DLAYER
10
162.01058726502043
20
111.4729206251715
30
2.999999999987704
 70
     32
  0
VERTEX
  8
MY3DLAYER
10
162.03785970497424
20
111.3975795866506
30
2.999999999987693
 70
     32
  0
VERTEX
  8
MY3DLAYER
10
162.0671507200554
20
111.32264214485171
30
2.999999999987681
 70
     32
  0
VERTEX
  8
MY3DLAYER
10
162.0984600887062
20
111.24810823602472
30
2.999999999987668
 70
     32
  0
VERTEX
  8
MY3DLAYER
10
162.25331848625555
20
110.93435569097915
30
2.9999999999876046
 70
     32
  0
VERTEX
  8
MY3DLAYER
10
162.42433586459603
20
110.62547685753142
30
2.999999999987535
 70
     32
  0
VERTEX
  8
MY3DLAYER
10
162.60747246076332
20
110.3198809670598
30
2.99999999998746
 70
     32
  0
VERTEX
  8
MY3DLAYER
10
162.7986885117933
20
110.01597725094254
30
2.9999999999873816
 70
     32
  0
VERTEX
  8
MY3DLAYER
10
162.99394425472175
20
109.71217494055789
30
2.9999999999873013
 70
     32
  0
VERTEX
  8
MY3DLAYER
10
163.18919992658454
20
109.40688326728409
30
2.9999999999872218
 70
     32
  0
VERTEX
  8
MY3DLAYER
10
163.38041576441742
20
109.09851146249939
30
2.9999999999871436
 70
     32
  0
VERTEX
  8
MY3DLAYER
10
163.56355200525624
20
108.78546875758205
30
2.9999999999870686
 70
     32
  0
VERTEX
  8
MY3DLAYER
10
163.73456888613683
20
108.46616438391032
30
2.999999999986999
 70
     32
  0
VERTEX
  8
MY3DLAYER
10
163.88942664409493
20
108.13900757286245
30
2.9999999999869353
 70
     32
  0
VERTEX
  8
MY3DLAYER
10
164.02408551616648
20
107.8024075558167
30
2.9999999999868803
 70
     32
  0
VERTEX
  8
MY3DLAYER
10
164.13450573938715
20
107.45477356415131
30
2.999999999986835
 70
     32
  0
VERTEX
  8
MY3DLAYER
10
164.21664755079286
20
107.09451482924453
30
2.9999999999868012
 70
     32
  0
VERTEX
  8
MY3DLAYER
10
164.2664711874194
20
106.72004058247462
30
2.999999999986778
 70
     32
  0
VERTEX
  8
MY3DLAYER
10
164.27993688630255
20
106.32976005521982
30
2.9999999999867724
 70
     32
  0
VERTEX
  8
MY3DLAYER
10
164.25300488447817
20
105.9220824788584
30
2.9999999999867835
 70
     32
  0
VERTEX
  8
MY3DLAYER
10
164.50893956172493
20
106.13154643353083
30
2.9999999999866787
 70
     32
  0
VERTEX
  8
MY3DLAYER
10
164.7346542538017
20
106.33979965656194
30
2.9999999999865867
 70
     32
  0
VERTEX
  8
MY3DLAYER
10
164.93143626145752
20
106.54684197446782
30
2.999999999986506
 70
     32
  0
VERTEX
  8
MY3DLAYER
10
165.10057288544138
20
106.75267321376464
30
2.9999999999864366
 70
     32
  0
VERTEX
  8
MY3DLAYER
10
165.24335142650224
20
106.95729320096844
30
2.9999999999863785
 70
     32
  0
VERTEX
  8
MY3DLAYER
10
165.3610591853892
20
107.16070176259531
30
2.999999999986333
 70
     32
  0
VERTEX
  8
MY3DLAYER
10
165.45498346285117
20
107.36289872516136
30
2.999999999986295
 70
     32
  0
VERTEX
  8
MY3DLAYER
10
165.5264115596372
20
107.56388391518267
30
2.9999999999862657
 70
     32
  0
VERTEX
  8
MY3DLAYER
10
165.57663077649627
20
107.76365715917535
30
2.9999999999862452
 70
     32
  0
VERTEX
  8
MY3DLAYER
10
165.60692841417745
20
107.9622182836555
30
2.9999999999862332
 70
     32
  0
VERTEX
  8
MY3DLAYER
10
165.61859177342964
20
108.1595671151392
30
2.9999999999862283
 70
     32
  0
VERTEX
  8
MY3DLAYER
10
165.61290815500192
20
108.35570348014252
30
2.9999999999862306
 70
     32
  0
VERTEX
  8
MY3DLAYER
10
165.59116485964327
20
108.55062720518161
30
2.9999999999862395
 70
     32
  0
VERTEX
  8
MY3DLAYER
10
165.5546491881027
20
108.74433811677254
30
2.9999999999862546
 70
     32
  0
VERTEX
  8
MY3DLAYER
10
165.50464844112918
20
108.93683604143136
30
2.999999999986275
 70
     32
  0
VERTEX
  8
MY3DLAYER
10
165.44244991947178
20
109.12812080567423
30
2.9999999999863003
 70
     32
  0
SEQEND
  0
POLYLINE
 8
Layer0
 66
     1
70
    8
 10
0.0
 20
 0.0
 30
0.0
  0
VERTEX
  8
MY3DLAYER
10
161.08152435114388
20
119.55610614502449
30
2.999999999988087
 70
     32
  0
VERTEX
  8
MY3DLAYER
10
159.13376554941425
20
119.5561061450239
30
2.999999999988883
 70
     32
  0
VERTEX
  8
MY3DLAYER
10
158.63407660728038
20
116.48801889409147
30
2.999999999989084
 70
     32
  0
VERTEX
  8
MY3DLAYER
10
158.58224063049636
20
116.48801889409144
30
2.999999999989105
 70
     32
  0
VERTEX
  8
MY3DLAYER
10
158.57233440124756
20
116.52052987344968
30
2.9999999999891096
 70
     32
  0
VERTEX
  8
MY3DLAYER
10
158.56197298367124
20
116.55339263302236
30
2.9999999999891136
 70
     32
  0
VERTEX
  8
MY3DLAYER
10
158.5511059796475
20
116.58655691849307
30
2.999999999989118
 70
     32
  0
VERTEX
  8
MY3DLAYER
10
158.53968299105648
20
116.61997247554555
30
2.999999999989123
 70
     32
  0
VERTEX
  8
MY3DLAYER
10
158.52765361977828
20
116.6535890498634
30
2.999999999989128
 70
     32
  0
VERTEX
  8
MY3DLAYER
10
158.51496746769308
20
116.68735638713031
30
2.999999999989133
 70
     32
  0
VERTEX
  8
MY3DLAYER
10
158.50157413668097
20
116.72122423302987
30
2.9999999999891385
 70
     32
  0
VERTEX
  8
MY3DLAYER
10
158.4874232286221
20
116.75514233324583
30
2.9999999999891442
 70
     32
  0
VERTEX
  8
MY3DLAYER
10
158.47246434539656
20
116.78906043346176
30
2.9999999999891505
 70
     32
  0
VERTEX
  8
MY3DLAYER
10
158.45664708888452
20
116.82292827936134
30
2.9999999999891567
 70
     32
  0
VERTEX
  8
MY3DLAYER
10
158.43992106096613
20
116.85669561662823
30
2.999999999989164
 70
     32
  0
VERTEX
  8
MY3DLAYER
10
158.4222358635214
20
116.89031219094608
30
2.999999999989171
 70
     32
  0
VERTEX
  8
MY3DLAYER
10
158.40354109843054
20
116.92372774799856
30
2.9999999999891784
 70
     32
  0
VERTEX
  8
MY3DLAYER
10
158.3837863675737
20
116.95689203346927
30
2.9999999999891864
 70
     32
  0
VERTEX
  8
MY3DLAYER
10
158.36292127283096
20
116.98975479304194
30
2.9999999999891953
 70
     32
  0
VERTEX
  8
MY3DLAYER
10
158.34089541608245
20
117.02226577240019
30
2.999999999989204
 70
     32
  0
VERTEX
  8
MY3DLAYER
10
158.3176727645815
20
117.05417900606159
30
2.999999999989214
 70
     32
  0
VERTEX
  8
MY3DLAYER
10
158.2932668546015
20
117.08528222706104
30
2.9999999999892237
 70
     32
  0
VERTEX
  8
MY3DLAYER
10
158.26770244417702
20
117.11557572885805
30
2.9999999999892344
 70
     32
  0
VERTEX
  8
MY3DLAYER
10
158.24100429134265
20
117.14505980491214
30
2.999999999989245
 70
     32
  0
VERTEX
  8
MY3DLAYER
10
158.21319715413298
20
117.1737347486828
30
2.9999999999892566
 70
     32
  0
VERTEX
  8
MY3DLAYER
10
158.18430579058258
20
117.2016008536296
30
2.999999999989268
 70
     32
  0
VERTEX
  8
MY3DLAYER
10
158.15435495872603
20
117.22865841321205
30
2.9999999999892806
 70
     32
  0
VERTEX
  8
MY3DLAYER
10
158.12336941659797
20
117.25490772088966
30
2.999999999989293
 70
     32
  0
VERTEX
  8
MY3DLAYER
10
158.09137392223292
20
117.28034907012196
30
2.9999999999893063
 70
     32
  0
VERTEX
  8
MY3DLAYER
10
158.05839323366547
20
117.3049827543685
30
2.9999999999893197
 70
     32
  0
VERTEX
  8
MY3DLAYER
10
158.02445210893023
20
117.32880906708876
30
2.9999999999893334
 70
     32
  0
VERTEX
  8
MY3DLAYER
10
157.98957530606177
20
117.3518283017423
30
2.9999999999893476
 70
     32
  0
VERTEX
  8
MY3DLAYER
10
157.9537875830947
20
117.37404075178861
30
2.9999999999893627
 70
     32
  0
VERTEX
  8
MY3DLAYER
10
157.91711369806356
20
117.39544671068724
30
2.9999999999893774
 70
     32
  0
VERTEX
  8
MY3DLAYER
10
157.879578409003
20
117.41604647189772
30
2.999999999989393
 70
     32
  0
VERTEX
  8
MY3DLAYER
10
157.84120647394752
20
117.43584032887951
30
2.999999999989409
 70
     32
  0
VERTEX
  8
MY3DLAYER
10
157.80162499063397
20
117.45766102014642
30
2.9999999999894245
 70
     32
  0
VERTEX
  8
MY3DLAYER
10
157.76047820592711
20
117.47789399882555
30
2.9999999999894413
 70
     32
  0
VERTEX
  8
MY3DLAYER
10
157.7178166015535
20
117.496564091509
30
2.999999999989459
 70
     32
  0
VERTEX
  8
MY3DLAYER
10
157.6736906592397
20
117.5136961247888
30
2.9999999999894773
 70
     32
  0
VERTEX
  8
MY3DLAYER
10
157.62815086071234
20
117.52931492525708
30
2.999999999989496
 70
     32
  0
VERTEX
  8
MY3DLAYER
10
157.58124768769798
20
117.54344531950589
30
2.9999999999895146
 70
     32
  0
VERTEX
  8
MY3DLAYER
10
157.53303162192316
20
117.55611213412733
30
2.9999999999895346
 70
     32
  0
VERTEX
  8
MY3DLAYER
10
157.48355314511448
20
117.56734019571348
30
2.9999999999895546
 70
     32
  0
VERTEX
  8
MY3DLAYER
10
157.4328627389985
20
117.5771543308564
30
2.9999999999895754
 70
     32
  0
VERTEX
  8
MY3DLAYER
10
157.3810108853018
20
117.58557936614818
30
2.9999999999895968
 70
     32
  0
VERTEX
  8
MY3DLAYER
10
157.32804806575098
20
117.5926401281809
30
2.9999999999896185
 70
     32
  0
VERTEX
  8
MY3DLAYER
10
157.2740247620726
20
117.59836144354662
30
2.9999999999896407
 70
     32
  0
VERTEX
  8
MY3DLAYER
10
157.21899145599323
20
117.60276813883748
30
2.999999999989663
 70
     32
  0
VERTEX
  8
MY3DLAYER
10
157.16299862923944
20
117.60588504064549
30
2.9999999999896856
 70
     32
  0
VERTEX
  8
MY3DLAYER
10
157.1060967635378
20
117.60773697556276
30
2.999999999989709
 70
     32
  0
VERTEX
  8
MY3DLAYER
10
157.04833634061492
20
117.6083487701814
30
2.9999999999897327
 70
     32
  0
VERTEX
  8
MY3DLAYER
10
156.96774267903612
20
117.60693894447267
30
2.999999999989766
 70
     32
  0
VERTEX
  8
MY3DLAYER
10
156.887553471148
20
117.60272631841674
30
2.9999999999897984
 70
     32
  0
VERTEX
  8
MY3DLAYER
10
156.80776864797502
20
117.59573616861871
30
2.999999999989831
 70
     32
  0
VERTEX
  8
MY3DLAYER
10
156.72838814054168
20
117.58599377168372
30
2.999999999989863
 70
     32
  0
VERTEX
  8
MY3DLAYER
10
156.64941187987247
20
117.57352440421695
30
2.9999999999898956
 70
     32
  0
VERTEX
  8
MY3DLAYER
10
156.57083979699178
20
117.55835334282357
30
2.999999999989928
 70
     32
  0
VERTEX
  8
MY3DLAYER
10
156.49267182292417
20
117.54050586410867
30
2.99999999998996
 70
     32
  0
VERTEX
  8
MY3DLAYER
10
156.41490788869407
20
117.52000724467746
30
2.9999999999899916
 70
     32
  0
VERTEX
  8
MY3DLAYER
10
156.33754792532594
20
117.49688276113504
30
2.9999999999900235
 70
     32
  0
VERTEX
  8
MY3DLAYER
10
156.26059186384427
20
117.47115769008663
30
2.9999999999900546
 70
     32
  0
VERTEX
  8
MY3DLAYER
10
156.18403963527354
20
117.44285730813735
30
2.999999999990086
 70
     32
  0
VERTEX
  8
MY3DLAYER
10
156.1078911706382
20
117.4120068918923
30
2.9999999999901172
 70
     32
  0
VERTEX
  8
MY3DLAYER
10
156.03214640096272
20
117.37863171795674
30
2.9999999999901483
 70
     32
  0
VERTEX
  8
MY3DLAYER
10
155.95680525727158
20
117.34275706293572
30
2.999999999990179
 70
     32
  0
VERTEX
  8
MY3DLAYER
10
155.88186767058926
20
117.30440820343446
30
2.9999999999902096
 70
     32
  0
VERTEX
  8
MY3DLAYER
10
155.8073335719402
20
117.26361041605809
30
2.9999999999902403
 70
     32
  0
VERTEX
  8
MY3DLAYER
10
155.73056807277553
20
117.22037639185109
30
2.999999999990272
 70
     32
  0
VERTEX
  8
MY3DLAYER
10
155.65536562180355
20
117.17466827895907
30
2.9999999999903024
 70
     32
  0
VERTEX
  8
MY3DLAYER
10
155.5816760591835
20
117.12643553963903
30
2.999999999990332
 70
     32
  0
VERTEX
  8
MY3DLAYER
10
155.5094492250746
20
117.07562763614789
30
2.999999999990362
 70
     32
  0
VERTEX
  8
MY3DLAYER
10
155.43863495963612
20
117.02219403074257
30
2.999999999990391
 70
     32
  0
VERTEX
  8
MY3DLAYER
10
155.3691831030272
20
116.96608418568
30
2.999999999990419
 70
     32
  0
VERTEX
  8
MY3DLAYER
10
155.30104349540713
20
116.90724756321711
30
2.999999999990447
 70
     32
  0
VERTEX
  8
MY3DLAYER
10
155.23416597693515
20
116.84563362561086
30
2.9999999999904743
 70
     32
  0
VERTEX
  8
MY3DLAYER
10
155.16850038777045
20
116.78119183511818
30
2.9999999999905014
 70
     32
  0
VERTEX
  8
MY3DLAYER
10
155.10399656807223
20
116.713871653996
30
2.9999999999905276
 70
     32
  0
VERTEX
  8
MY3DLAYER
10
155.0406043579998
20
116.64362254450123
30
2.999999999990554
 70
     32
  0
VERTEX
  8
MY3DLAYER
10
154.97827359771233
20
116.57039396889083
30
2.999999999990579
 70
     32
  0
VERTEX
  8
MY3DLAYER
10
154.91695412736905
20
116.49413538942174
30
2.999999999990604
 70
     32
  0
VERTEX
  8
MY3DLAYER
10
154.85659578712918
20
116.4147962683509
30
2.999999999990629
 70
     32
  0
VERTEX
  8
MY3DLAYER
10
154.797148417152
20
116.33232606793521
30
2.999999999990653
 70
     32
  0
VERTEX
  8
MY3DLAYER
10
154.73856185759666
20
116.24667425043162
30
2.999999999990677
 70
     32
  0
VERTEX
  8
MY3DLAYER
10
154.68159790660334
20
116.15799781529178
30
2.9999999999907003
 70
     32
  0
VERTEX
  8
MY3DLAYER
10
154.62703476176677
20
116.06647041753702
30
2.9999999999907225
 70
     32
  0
VERTEX
  8
MY3DLAYER
10
154.57484686242796
20
115.97206650277894
30
2.999999999990744
 70
     32
  0
VERTEX
  8
MY3DLAYER
10
154.525008647928
20
115.87476051662915
30
2.9999999999907643
 70
     32
  0
VERTEX
  8
MY3DLAYER
10
154.47749455760803
20
115.77452690469919
30
2.999999999990784
 70
     32
  0
VERTEX
  8
MY3DLAYER
10
154.43227903080907
20
115.67134011260069
30
2.999999999990802
 70
     32
  0
VERTEX
  8
MY3DLAYER
10
154.3893365068722
20
115.56517458594517
30
2.99999999999082
 70
     32
  0
VERTEX
  8
MY3DLAYER
10
154.3486414251385
20
115.45600477034422
30
2.999999999990836
 70
     32
  0
VERTEX
  8
MY3DLAYER
10
154.3101682249491
20
115.34380511140948
30
2.999999999990852
 70
     32
  0
VERTEX
  8
MY3DLAYER
10
154.273891345645
20
115.22855005475247
30
2.999999999990867
 70
     32
  0
VERTEX
  8
MY3DLAYER
10
154.23978522656734
20
115.11021404598478
30
2.9999999999908806
 70
     32
  0
VERTEX
  8
MY3DLAYER
10
154.20782430705714
20
114.98877153071803
30
2.999999999990894
 70
     32
  0
VERTEX
  8
MY3DLAYER
10
154.1779830264555
20
114.86419695456372
30
2.999999999990906
 70
     32
  0
VERTEX
  8
MY3DLAYER
10
154.15023582410356
20
114.73646476313353
30
2.9999999999909175
 70
     32
  0
VERTEX
  8
MY3DLAYER
10
154.12455713934233
20
114.60554940203896
30
2.999999999990928
 70
     32
  0
VERTEX
  8
MY3DLAYER
10
154.1009214115129
20
114.47142531689165
30
2.9999999999909375
 70
     32
  0
VERTEX
  8
MY3DLAYER
10
154.0799128441862
20
114.34336715536745
30
2.999999999990946
 70
     32
  0
VERTEX
  8
MY3DLAYER
10
154.06213297956978
20
114.2177562742483
30
2.9999999999909535
 70
     32
  0
VERTEX
  8
MY3DLAYER
10
154.04758226495943
20
114.09461818549221
30
2.9999999999909592
 70
     32
  0
VERTEX
  8
MY3DLAYER
10
154.03626114765103
20
113.97397840105721
30
2.999999999990964
 70
     32
  0
VERTEX
  8
MY3DLAYER
10
154.02817007494048
20
113.8558624329013
30
2.9999999999909672
 70
     32
  0
VERTEX
  8
MY3DLAYER
10
154.02330949412354
20
113.74029579298255
30
2.999999999990969
 70
     32
  0
VERTEX
  8
MY3DLAYER
10
154.02167985249613
20
113.62730399325892
30
2.9999999999909694
 70
     32
  0
VERTEX
  8
MY3DLAYER
10
154.0232815973541
20
113.51691254568846
30
2.999999999990969
 70
     32
  0
VERTEX
  8
MY3DLAYER
10
154.02811517599326
20
113.40914696222917
30
2.9999999999909672
 70
     32
  0
VERTEX
  8
MY3DLAYER
10
154.03618103570955
20
113.3040327548391
30
2.9999999999909637
 70
     32
  0
VERTEX
  8
MY3DLAYER
10
154.04747962379872
20
113.20159543547622
30
2.999999999990959
 70
     32
  0
VERTEX
  8
MY3DLAYER
10
154.06201138755674
20
113.10186051609858
30
2.999999999990953
 70
     32
  0
VERTEX
  8
MY3DLAYER
10
154.07977677427937
20
113.0048535086642
30
2.999999999990946
 70
     32
  0
VERTEX
  8
MY3DLAYER
10
154.10077623126247
20
112.91059992513108
30
2.999999999990937
 70
     32
  0
VERTEX
  8
MY3DLAYER
10
154.12501020580197
20
112.81912527745727
30
2.9999999999909273
 70
     32
  0
VERTEX
  8
MY3DLAYER
10
154.15247914519367
20
112.73045507760075
30
2.999999999990916
 70
     32
  0
VERTEX
  8
MY3DLAYER
10
154.17954222595372
20
112.64460921158977
30
2.9999999999909064
 70
     32
  0
VERTEX
  8
MY3DLAYER
10
154.20900517647542
20
112.56159061321829
30
2.9999999999908944
 70
     32
  0
VERTEX
  8
MY3DLAYER
10
154.24084256987055
20
112.48139936609304
30
2.9999999999908815
 70
     32
  0
VERTEX
  8
MY3DLAYER
10
154.27502897925098
20
112.40403555382072
30
2.9999999999908673
 70
     32
  0
VERTEX
  8
MY3DLAYER
10
154.31153897772845
20
112.32949926000806
30
2.9999999999908527
 70
     32
  0
VERTEX
  8
MY3DLAYER
10
154.35034713841475
20
112.25779056826171
30
2.9999999999908367
 70
     32
  0
VERTEX
  8
MY3DLAYER
10
154.39142803442172
20
112.1889095621884
30
2.99999999999082
 70
     32
  0
VERTEX
  8
MY3DLAYER
10
154.43475623886115
20
112.12285632539482
30
2.999999999990802
 70
     32
  0
VERTEX
  8
MY3DLAYER
10
154.48030632484483
20
112.05963094148768
30
2.9999999999907834
 70
     32
  0
VERTEX
  8
MY3DLAYER
10
154.52805286548457
20
111.99923349407369
30
2.999999999990764
 70
     32
  0
VERTEX
  8
MY3DLAYER
10
154.57797043389218
20
111.94166406675953
30
2.9999999999907434
 70
     32
  0
VERTEX
  8
MY3DLAYER
10
154.6300336031794
20
111.88692274315193
30
2.999999999990722
 70
     32
  0
VERTEX
  8
MY3DLAYER
10
154.68421694645812
20
111.83500960685757
30
2.9999999999907
 70
     32
  0
VERTEX
  8
MY3DLAYER
10
154.74049503684012
20
111.78592474148316
30
2.999999999990677
 70
     32
  0
VERTEX
  8
MY3DLAYER
10
154.79884244743712
20
111.73966823063539
30
2.999999999990653
 70
     32
  0
VERTEX
  8
MY3DLAYER
10
154.85923375136105
20
111.69624015792097
30
2.9999999999906284
 70
     32
  0
VERTEX
  8
MY3DLAYER
10
154.92125415207536
20
111.65240785648759
30
2.999999999990603
 70
     32
  0
VERTEX
  8
MY3DLAYER
10
154.98453876345783
20
111.61140234571745
30
2.9999999999905773
 70
     32
  0
VERTEX
  8
MY3DLAYER
10
155.04913782686572
20
111.57322377735682
30
2.9999999999905507
 70
     32
  0
VERTEX
  8
MY3DLAYER
10
155.11510158365633
20
111.53787230315176
30
2.9999999999905236
 70
     32
  0
VERTEX
  8
MY3DLAYER
10
155.182480275187
20
111.50534807484853
30
2.999999999990496
 70
     32
  0
VERTEX
  8
MY3DLAYER
10
155.251324142815
20
111.47565124419323
30
2.999999999990468
 70
     32
  0
VERTEX
  8
MY3DLAYER
10
155.32168342789768
20
111.44878196293202
30
2.999999999990439
 70
     32
  0
VERTEX
  8
MY3DLAYER
10
155.3936083717923
20
111.42474038281111
30
2.99999999999041
 70
     32
  0
VERTEX
  8
MY3DLAYER
10
155.4671492158562
20
111.40352665557664
30
2.9999999999903797
 70
     32
  0
VERTEX
  8
MY3DLAYER
10
155.5423562014467
20
111.38514093297476
30
2.9999999999903486
 70
     32
  0
VERTEX
  8
MY3DLAYER
10
155.61927956992105
20
111.36958336675164
30
2.9999999999903175
 70
     32
  0
VERTEX
  8
MY3DLAYER
10
155.69796956263664
20
111.35685410865347
30
2.9999999999902855
 70
     32
  0
VERTEX
  8
MY3DLAYER
10
155.77847642095068
20
111.34695331042637
30
2.9999999999902522
 70
     32
  0
VERTEX
  8
MY3DLAYER
10
155.86085038622053
20
111.33988112381654
30
2.999999999990219
 70
     32
  0
VERTEX
  8
MY3DLAYER
10
155.94514169980354
20
111.33563770057015
30
2.9999999999901843
 70
     32
  0
VERTEX
  8
MY3DLAYER
10
156.03140060305697
20
111.3342231924333
30
2.9999999999901488
 70
     32
  0
VERTEX
  8
MY3DLAYER
10
156.08613266722236
20
111.33483030458896
30
2.9999999999901266
 70
     32
  0
VERTEX
  8
MY3DLAYER
10
156.14043055342438
20
111.3366514420719
30
2.9999999999901044
 70
     32
  0
VERTEX
  8
MY3DLAYER
10
156.19426972309606
20
111.33968630640624
30
2.999999999990082
 70
     32
  0
VERTEX
  8
MY3DLAYER
10
156.24762563767038
20
111.34393459911601
30
2.9999999999900604
 70
     32
  0
VERTEX
  8
MY3DLAYER
10
156.3004737585804
20
111.34939602172531
30
2.999999999990039
 70
     32
  0
VERTEX
  8
MY3DLAYER
10
156.35278954725908
20
111.35607027575823
30
2.9999999999900173
 70
     32
  0
VERTEX
  8
MY3DLAYER
10
156.4045484651394
20
111.36395706273882
30
2.9999999999899964
 70
     32
  0
VERTEX
  8
MY3DLAYER
10
156.45572597365447
20
111.37305608419116
30
2.9999999999899756
 70
     32
  0
VERTEX
  8
MY3DLAYER
10
156.5062975342372
20
111.38336704163933
30
2.9999999999899547
 70
     32
  0
VERTEX
  8
MY3DLAYER
10
156.55623860832063
20
111.39488963660739
30
2.9999999999899343
 70
     32
  0
VERTEX
  8
MY3DLAYER
10
156.60552465733778
20
111.4076235706194
30
2.9999999999899143
 70
     32
  0
VERTEX
  8
MY3DLAYER
10
156.65413114272164
20
111.42156854519952
30
2.9999999999898943
 70
     32
  0
VERTEX
  8
MY3DLAYER
10
156.70203352590525
20
111.43672426187172
30
2.9999999999898748
 70
     32
  0
VERTEX
  8
MY3DLAYER
10
156.74920726832158
20
111.45309042216013
30
2.9999999999898552
 70
     32
  0
VERTEX
  8
MY3DLAYER
10
156.79562783140366
20
111.47066672758878
30
2.9999999999898366
 70
     32
  0
VERTEX
  8
MY3DLAYER
10
156.8412706765845
20
111.4894528796818
30
2.999999999989818
 70
     32
  0
VERTEX
  8
MY3DLAYER
10
156.8861183756987
20
111.50924205420066
30
2.9999999999897997
 70
     32
  0
VERTEX
  8
MY3DLAYER
10
156.9301868917042
20
111.52981101797677
30
2.9999999999897815
 70
     32
  0
VERTEX
  8
MY3DLAYER
10
156.97350097009462
20
111.5511349394017
30
2.9999999999897637
 70
     32
  0
VERTEX
  8
MY3DLAYER
10
157.01608535636348
20
111.57318898686695
30
2.9999999999897464
 70
     32
  0
VERTEX
  8
MY3DLAYER
10
157.05796479600437
20
111.59594832876402
30
2.999999999989729
 70
     32
  0
VERTEX
  8
MY3DLAYER
10
157.09916403451086
20
111.61938813348448
30
2.9999999999897127
 70
     32
  0
VERTEX
  8
MY3DLAYER
10
157.1397078173766
20
111.64348356941981
30
2.999999999989696
 70
     32
  0
VERTEX
  8
MY3DLAYER
10
157.1796208900951
20
111.66820980496152
30
2.9999999999896794
 70
     32
  0
VERTEX
  8
MY3DLAYER
10
157.21892799815993
20
111.69354200850117
30
2.9999999999896634
 70
     32
  0
VERTEX
  8
MY3DLAYER
10
157.25765388706472
20
111.71945534843022
30
2.999999999989648
 70
     32
  0
VERTEX
  8
MY3DLAYER
10
157.295823302303
20
111.74592499314022
30
2.999999999989632
 70
     32
  0
VERTEX
  8
MY3DLAYER
10
157.33346098936838
20
111.77292611102271
30
2.9999999999896168
 70
     32
  0
VERTEX
  8
MY3DLAYER
10
157.37059169375445
20
111.80043387046918
30
2.9999999999896017
 70
     32
  0
VERTEX
  8
MY3DLAYER
10
157.40724016095473
20
111.82842343987113
30
2.9999999999895866
 70
     32
  0
VERTEX
  8
MY3DLAYER
10
157.4434311364629
20
111.85686998762013
30
2.9999999999895715
 70
     32
  0
VERTEX
  8
MY3DLAYER
10
157.4791893657724
20
111.88574868210765
30
2.9999999999895572
 70
     32
  0
VERTEX
  8
MY3DLAYER
10
157.5112967701464
20
111.91807342659695
30
2.999999999989544
 70
     32
  0
VERTEX
  8
MY3DLAYER
10
157.54294848873295
20
111.950427434477
30
2.999999999989531
 70
     32
  0
VERTEX
  8
MY3DLAYER
10
157.57409419447796
20
111.98283538080271
30
2.999999999989518
 70
     32
  0
VERTEX
  8
MY3DLAYER
10
157.60468356032717
20
112.01532194062902
30
2.9999999999895057
 70
     32
  0
VERTEX
  8
MY3DLAYER
10
157.6346662592265
20
112.04791178901085
30
2.9999999999894937
 70
     32
  0
VERTEX
  8
MY3DLAYER
10
157.66399196412164
20
112.08062960100312
30
2.9999999999894817
 70
     32
  0
VERTEX
  8
MY3DLAYER
10
157.69261034795852
20
112.11350005166084
30
2.9999999999894698
 70
     32
  0
VERTEX
  8
MY3DLAYER
10
157.72047108368292
20
112.14654781603885
30
2.999999999989458
 70
     32
  0
VERTEX
  8
MY3DLAYER
10
157.74752384424067
20
112.1797975691921
30
2.9999999999894476
 70
     32
  0
VERTEX
  8
MY3DLAYER
10
157.7737183025776
20
112.2132739861756
30
2.9999999999894364
 70
     32
  0
VERTEX
  8
MY3DLAYER
10
157.79900413163955
20
112.24700174204418
30
2.9999999999894262
 70
     32
  0
VERTEX
  8
MY3DLAYER
10
157.8233310043723
20
112.28100551185283
30
2.9999999999894165
 70
     32
  0
VERTEX
  8
MY3DLAYER
10
157.8466485937217
20
112.31530997065646
30
2.999999999989407
 70
     32
  0
VERTEX
  8
MY3DLAYER
10
157.8689065726336
20
112.34993979351002
30
2.999999999989398
 70
     32
  0
VERTEX
  8
MY3DLAYER
10
157.89005461405375
20
112.38491965546845
30
2.999999999989389
 70
     32
  0
VERTEX
  8
MY3DLAYER
10
157.91004239092803
20
112.42027423158663
30
2.999999999989381
 70
     32
  0
VERTEX
  8
MY3DLAYER
10
157.97887973479476
20
112.42027423158666
30
2.9999999999893525
 70
     32
  0
VERTEX
  8
MY3DLAYER
10
157.8066486804641
20
111.42033800615549
30
2.999999999989423
 70
     32
  0
VERTEX
  8
MY3DLAYER
10
159.73712787200722
20
111.42033800615606
30
2.9999999999886335
 70
     32
  0
VERTEX
  8
MY3DLAYER
10
161.08152435114388
20
119.55610614502449
30
2.999999999988087
 70
     32
  0
SEQEND
  0
POLYLINE
 8
Layer0
 66
     1
70
    8
 10
0.0
 20
 0.0
 30
0.0
  0
VERTEX
  8
MY3DLAYER
10
156.82427073638814
20
115.88465728494425
30
2.999999999989824
 70
     32
  0
VERTEX
  8
MY3DLAYER
10
156.86021988299478
20
115.90970340916782
30
2.9999999999898095
 70
     32
  0
VERTEX
  8
MY3DLAYER
10
156.89695040738607
20
115.9331325925277
30
2.9999999999897944
 70
     32
  0
VERTEX
  8
MY3DLAYER
10
156.93443725054328
20
115.95494498154464
30
2.9999999999897793
 70
     32
  0
VERTEX
  8
MY3DLAYER
10
156.97265535344766
20
115.97514072273935
30
2.9999999999897633
 70
     32
  0
VERTEX
  8
MY3DLAYER
10
157.01157965708055
20
115.99371996263262
30
2.9999999999897473
 70
     32
  0
VERTEX
  8
MY3DLAYER
10
157.0511851024232
20
116.01068284774517
30
2.9999999999897313
 70
     32
  0
VERTEX
  8
MY3DLAYER
10
157.09144663045691
20
116.02602952459777
30
2.999999999989715
 70
     32
  0
VERTEX
  8
MY3DLAYER
10
157.132339182163
20
116.03976013971113
30
2.999999999989698
 70
     32
  0
VERTEX
  8
MY3DLAYER
10
157.17383769852276
20
116.05187483960603
30
2.999999999989681
 70
     32
  0
VERTEX
  8
MY3DLAYER
10
157.21591712051742
20
116.06237377080319
30
2.999999999989664
 70
     32
  0
VERTEX
  8
MY3DLAYER
10
157.25855238912828
20
116.07125707982335
30
2.9999999999896465
 70
     32
  0
VERTEX
  8
MY3DLAYER
10
157.30171844533666
20
116.07852491318728
30
2.999999999989629
 70
     32
  0
VERTEX
  8
MY3DLAYER
10
157.34539023012385
20
116.08417741741567
30
2.999999999989611
 70
     32
  0
VERTEX
  8
MY3DLAYER
10
157.38954268447117
20
116.08821473902935
30
2.999999999989593
 70
     32
  0
VERTEX
  8
MY3DLAYER
10
157.43415074935982
20
116.09063702454903
30
2.9999999999895746
 70
     32
  0
VERTEX
  8
MY3DLAYER
10
157.47918936577116
20
116.09144442049542
30
2.9999999999895564
 70
     32
  0
VERTEX
  8
MY3DLAYER
10
157.52098866978181
20
116.09063702454904
30
2.999999999989539
 70
     32
  0
VERTEX
  8
MY3DLAYER
10
157.56230826988974
20
116.08821473902943
30
2.999999999989522
 70
     32
  0
VERTEX
  8
MY3DLAYER
10
157.60307241633296
20
116.08417741741577
30
2.9999999999895057
 70
     32
  0
VERTEX
  8
MY3DLAYER
10
157.64320535934942
20
116.07852491318737
30
2.9999999999894893
 70
     32
  0
VERTEX
  8
MY3DLAYER
10
157.68263134917706
20
116.07125707982347
30
2.9999999999894733
 70
     32
  0
VERTEX
  8
MY3DLAYER
10
157.72127463605386
20
116.06237377080332
30
2.9999999999894573
 70
     32
  0
VERTEX
  8
MY3DLAYER
10
157.7590594702178
20
116.0518748396062
30
2.999999999989442
 70
     32
  0
VERTEX
  8
MY3DLAYER
10
157.7959101019068
20
116.03976013971133
30
2.9999999999894267
 70
     32
  0
VERTEX
  8
MY3DLAYER
10
157.8317507813588
20
116.026029524598
30
2.999999999989412
 70
     32
  0
VERTEX
  8
MY3DLAYER
10
157.86650575881185
20
116.01068284774543
30
2.999999999989398
 70
     32
  0
VERTEX
  8
MY3DLAYER
10
157.90009928450382
20
115.9937199626329
30
2.9999999999893845
 70
     32
  0
VERTEX
  8
MY3DLAYER
10
157.93245560867268
20
115.97514072273965
30
2.999999999989371
 70
     32
  0
VERTEX
  8
MY3DLAYER
10
157.96349898155643
20
115.95494498154494
30
2.9999999999893583
 70
     32
  0
VERTEX
  8
MY3DLAYER
10
157.99315365339302
20
115.93313259252804
30
2.9999999999893463
 70
     32
  0
VERTEX
  8
MY3DLAYER
10
158.02134387442038
20
115.90970340916816
30
2.9999999999893348
 70
     32
  0
VERTEX
  8
MY3DLAYER
10
158.0479938948765
20
115.88465728494461
30
2.9999999999893237
 70
     32
  0
VERTEX
  8
MY3DLAYER
10
158.07627959336392
20
115.86123116660644
30
2.999999999989312
 70
     32
  0
VERTEX
  8
MY3DLAYER
10
158.1029974425438
20
115.83621521102518
30
2.999999999989301
 70
     32
  0
VERTEX
  8
MY3DLAYER
10
158.1281982857417
20
115.80963454807623
30
2.999999999989291
 70
     32
  0
VERTEX
  8
MY3DLAYER
10
158.15193296628314
20
115.78151430763496
30
2.999999999989281
 70
     32
  0
VERTEX
  8
MY3DLAYER
10
158.17425232749375
20
115.75187961957678
30
2.999999999989272
 70
     32
  0
VERTEX
  8
MY3DLAYER
10
158.19520721269902
20
115.72075561377707
30
2.9999999999892633
 70
     32
  0
VERTEX
  8
MY3DLAYER
10
158.21484846522455
20
115.68816742011123
30
2.9999999999892553
 70
     32
  0
VERTEX
  8
MY3DLAYER
10
158.23322692839588
20
115.65414016845463
30
2.999999999989248
 70
     32
  0
VERTEX
  8
MY3DLAYER
10
158.25039344553855
20
115.6186989886827
30
2.999999999989241
 70
     32
  0
VERTEX
  8
MY3DLAYER
10
158.2663988599782
20
115.58186901067079
30
2.9999999999892344
 70
     32
  0
VERTEX
  8
MY3DLAYER
10
158.28129401504032
20
115.54367536429433
30
2.999999999989228
 70
     32
  0
VERTEX
  8
MY3DLAYER
10
158.2951297540505
20
115.50414317942864
30
2.9999999999892224
 70
     32
  0
VERTEX
  8
MY3DLAYER
10
158.3079569203343
20
115.46329758594922
30
2.9999999999892175
 70
     32
  0
VERTEX
  8
MY3DLAYER
10
158.31982635721727
20
115.42116371373136
30
2.999999999989212
 70
     32
  0
VERTEX
  8
MY3DLAYER
10
158.33078890802497
20
115.37776669265052
30
2.999999999989208
 70
     32
  0
VERTEX
  8
MY3DLAYER
10
158.34089541608296
20
115.33313165258204
30
2.9999999999892037
 70
     32
  0
VERTEX
  8
MY3DLAYER
10
158.34998513670774
20
115.28747490893662
30
2.9999999999892
 70
     32
  0
VERTEX
  8
MY3DLAYER
10
158.35786289458258
20
115.24096207969306
30
2.9999999999891966
 70
     32
  0
VERTEX
  8
MY3DLAYER
10
158.3645286897074
20
115.19354232884139
30
2.999999999989194
 70
     32
  0
VERTEX
  8
MY3DLAYER
10
158.3699825220823
20
115.14516482037162
30
2.9999999999891918
 70
     32
  0
VERTEX
  8
MY3DLAYER
10
158.3742243917072
20
115.09577871827378
30
2.99999999998919
 70
     32
  0
VERTEX
  8
MY3DLAYER
10
158.37725429858216
20
115.04533318653793
30
2.999999999989189
 70
     32
  0
VERTEX
  8
MY3DLAYER
10
158.37907224270714
20
114.99377738915406
30
2.999999999989188
 70
     32
  0
VERTEX
  8
MY3DLAYER
10
158.3796782240821
20
114.94106049011219
30
2.999999999989188
 70
     32
  0
VERTEX
  8
MY3DLAYER
10
158.37907224270717
20
114.88713165340238
30
2.999999999989188
 70
     32
  0
VERTEX
  8
MY3DLAYER
10
158.37725429858222
20
114.83194004301463
30
2.9999999999891886
 70
     32
  0
VERTEX
  8
MY3DLAYER
10
158.3742243917073
20
114.77543482293895
30
2.99999999998919
 70
     32
  0
VERTEX
  8
MY3DLAYER
10
158.36998252208244
20
114.71756515716541
30
2.9999999999891918
 70
     32
  0
VERTEX
  8
MY3DLAYER
10
158.36452868970758
20
114.65828020968401
30
2.999999999989194
 70
     32
  0
VERTEX
  8
MY3DLAYER
10
158.35786289458275
20
114.59752914448477
30
2.9999999999891966
 70
     32
  0
VERTEX
  8
MY3DLAYER
10
158.349985136708
20
114.53526112555774
30
2.9999999999892
 70
     32
  0
VERTEX
  8
MY3DLAYER
10
158.3408954160832
20
114.47142531689292
30
2.9999999999892037
 70
     32
  0
VERTEX
  8
MY3DLAYER
10
158.33060422743975
20
114.41062089267731
30
2.9999999999892077
 70
     32
  0
VERTEX
  8
MY3DLAYER
10
158.31915488113927
20
114.35100068047518
30
2.9999999999892126
 70
     32
  0
VERTEX
  8
MY3DLAYER
10
158.30659740325186
20
114.292539785555
30
2.9999999999892175
 70
     32
  0
VERTEX
  8
MY3DLAYER
10
158.29298181984754
20
114.23521331318523
30
2.9999999999892233
 70
     32
  0
VERTEX
  8
MY3DLAYER
10
158.27835815699635
20
114.17899636863434
30
2.999999999989229
 70
     32
  0
VERTEX
  8
MY3DLAYER
10
158.2627764407684
20
114.12386405717078
30
2.9999999999892357
 70
     32
  0
VERTEX
  8
MY3DLAYER
10
158.2462866972337
20
114.06979148406296
30
2.9999999999892424
 70
     32
  0
VERTEX
  8
MY3DLAYER
10
158.22893895246227
20
114.01675375457943
30
2.9999999999892495
 70
     32
  0
VERTEX
  8
MY3DLAYER
10
158.21078323252425
20
113.96472597398859
30
2.9999999999892566
 70
     32
  0
VERTEX
  8
MY3DLAYER
10
158.19186956348958
20
113.91368324755891
30
2.9999999999892646
 70
     32
  0
VERTEX
  8
MY3DLAYER
10
158.1722479714284
20
113.86360068055883
30
2.9999999999892726
 70
     32
  0
VERTEX
  8
MY3DLAYER
10
158.1519684824107
20
113.81445337825681
30
2.9999999999892806
 70
     32
  0
VERTEX
  8
MY3DLAYER
10
158.13108112250654
20
113.76621644592136
30
2.999999999989289
 70
     32
  0
VERTEX
  8
MY3DLAYER
10
158.10963591778602
20
113.7188649888209
30
2.999999999989298
 70
     32
  0
VERTEX
  8
MY3DLAYER
10
158.0876828943191
20
113.67237411222386
30
2.999999999989307
 70
     32
  0
VERTEX
  8
MY3DLAYER
10
158.06527207817592
20
113.62671892139873
30
2.9999999999893165
 70
     32
  0
VERTEX
  8
MY3DLAYER
10
158.0392104370972
20
113.57904936727319
30
2.9999999999893268
 70
     32
  0
VERTEX
  8
MY3DLAYER
10
158.01271815670876
20
113.53299569492344
30
2.999999999989338
 70
     32
  0
VERTEX
  8
MY3DLAYER
10
157.98577019053292
20
113.4885579093659
30
2.999999999989349
 70
     32
  0
VERTEX
  8
MY3DLAYER
10
157.95834149209193
20
113.44573601561693
30
2.99999999998936
 70
     32
  0
VERTEX
  8
MY3DLAYER
10
157.93040701490816
20
113.40453001869298
30
2.999999999989371
 70
     32
  0
VERTEX
  8
MY3DLAYER
10
157.90194171250383
20
113.36493992361044
30
2.999999999989383
 70
     32
  0
VERTEX
  8
MY3DLAYER
10
157.87292053840127
20
113.32696573538573
30
2.999999999989395
 70
     32
  0
VERTEX
  8
MY3DLAYER
10
157.84331844612277
20
113.2906074590352
30
2.999999999989407
 70
     32
  0
VERTEX
  8
MY3DLAYER
10
157.81311038919063
20
113.25586509957529
30
2.999999999989419
 70
     32
  0
VERTEX
  8
MY3DLAYER
10
157.78227132112715
20
113.22273866202238
30
2.999999999989432
 70
     32
  0
VERTEX
  8
MY3DLAYER
10
157.7507761954546
20
113.1912281513929
30
2.9999999999894444
 70
     32
  0
VERTEX
  8
MY3DLAYER
10
157.7185999656953
20
113.16133357270324
30
2.999999999989458
 70
     32
  0
VERTEX
  8
MY3DLAYER
10
157.68571758537152
20
113.1330549309698
30
2.9999999999894715
 70
     32
  0
VERTEX
  8
MY3DLAYER
10
157.65210400800558
20
113.106392231209
30
2.9999999999894853
 70
     32
  0
VERTEX
  8
MY3DLAYER
10
157.61773418711974
20
113.08134547843721
30
2.9999999999894995
 70
     32
  0
VERTEX
  8
MY3DLAYER
10
157.58258307623632
20
113.05791467767085
30
2.9999999999895133
 70
     32
  0
VERTEX
  8
MY3DLAYER
10
157.54663861822382
20
113.03286852833043
30
2.9999999999895284
 70
     32
  0
VERTEX
  8
MY3DLAYER
10
157.5099389074309
20
113.00943932298895
30
2.9999999999895435
 70
     32
  0
VERTEX
  8
MY3DLAYER
10
157.47253412459992
20
112.98762691491666
30
2.9999999999895586
 70
     32
  0
VERTEX
  8
MY3DLAYER
10
157.43447445047337
20
112.96743115738379
30
2.999999999989574
 70
     32
  0
VERTEX
  8
MY3DLAYER
10
157.39581006579374
20
112.94885190366058
30
2.99999999998959
 70
     32
  0
VERTEX
  8
MY3DLAYER
10
157.3565911513034
20
112.93188900701726
30
2.999999999989606
 70
     32
  0
VERTEX
  8
MY3DLAYER
10
157.31686788774485
20
112.91654232072409
30
2.9999999999896225
 70
     32
  0
VERTEX
  8
MY3DLAYER
10
157.27669045586055
20
112.90281169805128
30
2.9999999999896385
 70
     32
  0
VERTEX
  8
MY3DLAYER
10
157.23610903639292
20
112.8906969922691
30
2.999999999989655
 70
     32
  0
VERTEX
  8
MY3DLAYER
10
157.1951738100844
20
112.88019805664774
30
2.999999999989672
 70
     32
  0
VERTEX
  8
MY3DLAYER
10
157.15393495767748
20
112.87131474445751
30
2.999999999989689
 70
     32
  0
VERTEX
  8
MY3DLAYER
10
157.11244265991456
20
112.86404690896858
30
2.999999999989706
 70
     32
  0
VERTEX
  8
MY3DLAYER
10
157.07074709753812
20
112.85839440345121
30
2.999999999989723
 70
     32
  0
VERTEX
  8
MY3DLAYER
10
157.02889845129062
20
112.85435708117566
30
2.99999999998974
 70
     32
  0
VERTEX
  8
MY3DLAYER
10
156.98694690191442
20
112.85193479541216
30
2.999999999989757
 70
     32
  0
VERTEX
  8
MY3DLAYER
10
156.94494263015207
20
112.85112739943091
30
2.9999999999897744
 70
     32
  0
VERTEX
  8
MY3DLAYER
10
156.90029835067213
20
112.85193479541212
30
2.9999999999897926
 70
     32
  0
VERTEX
  8
MY3DLAYER
10
156.85683984414283
20
112.85435708117562
30
2.9999999999898104
 70
     32
  0
VERTEX
  8
MY3DLAYER
10
156.81454199093056
20
112.85839440345114
30
2.9999999999898272
 70
     32
  0
VERTEX
  8
MY3DLAYER
10
156.77337967140176
20
112.86404690896848
30
2.9999999999898446
 70
     32
  0
VERTEX
  8
MY3DLAYER
10
156.73332776592287
20
112.87131474445738
30
2.9999999999898606
 70
     32
  0
VERTEX
  8
MY3DLAYER
10
156.69436115486033
20
112.8801980566476
30
2.999999999989877
 70
     32
  0
VERTEX
  8
MY3DLAYER
10
156.65645471858056
20
112.89069699226891
30
2.9999999999898925
 70
     32
  0
VERTEX
  8
MY3DLAYER
10
156.61958333744997
20
112.90281169805108
30
2.999999999989907
 70
     32
  0
VERTEX
  8
MY3DLAYER
10
156.583721891835
20
112.91654232072386
30
2.999999999989922
 70
     32
  0
VERTEX
  8
MY3DLAYER
10
156.54884526210208
20
112.93188900701702
30
2.9999999999899365
 70
     32
  0
VERTEX
  8
MY3DLAYER
10
156.51492832861769
20
112.94885190366031
30
2.9999999999899503
 70
     32
  0
VERTEX
  8
MY3DLAYER
10
156.4819459717482
20
112.96743115738349
30
2.9999999999899636
 70
     32
  0
VERTEX
  8
MY3DLAYER
10
156.44987307186003
20
112.98762691491635
30
2.9999999999899765
 70
     32
  0
VERTEX
  8
MY3DLAYER
10
156.41868450931966
20
113.00943932298863
30
2.99999999998999
 70
     32
  0
VERTEX
  8
MY3DLAYER
10
156.38835516449348
20
113.03286852833008
30
2.9999999999900018
 70
     32
  0
VERTEX
  8
MY3DLAYER
10
156.35885991774796
20
113.0579146776705
30
2.9999999999900138
 70
     32
  0
VERTEX
  8
MY3DLAYER
10
156.3334163050732
20
113.08134547843683
30
2.999999999990024
 70
     32
  0
VERTEX
  8
MY3DLAYER
10
156.30882870588584
20
113.1063922312086
30
2.999999999990034
 70
     32
  0
VERTEX
  8
MY3DLAYER
10
156.28514796769164
20
113.13305493096941
30
2.9999999999900444
 70
     32
  0
VERTEX
  8
MY3DLAYER
10
156.26242493799666
20
113.16133357270282
30
2.9999999999900533
 70
     32
  0
VERTEX
  8
MY3DLAYER
10
156.24071046430672
20
113.19122815139247
30
2.999999999990062
 70
     32
  0
VERTEX
  8
MY3DLAYER
10
156.2200553941277
20
113.22273866202194
30
2.9999999999900706
 70
     32
  0
VERTEX
  8
MY3DLAYER
10
156.20051057496556
20
113.25586509957479
30
2.9999999999900786
 70
     32
  0
VERTEX
  8
MY3DLAYER
10
156.18212685432613
20
113.2906074590347
30
2.999999999990086
 70
     32
  0
VERTEX
  8
MY3DLAYER
10
156.16495507971533
20
113.3269657353852
30
2.9999999999900933
 70
     32
  0
VERTEX
  8
MY3DLAYER
10
156.14904609863902
20
113.36493992360991
30
2.9999999999901
 70
     32
  0
VERTEX
  8
MY3DLAYER
10
156.13445075860315
20
113.40453001869244
30
2.9999999999901057
 70
     32
  0
VERTEX
  8
MY3DLAYER
10
156.1212199071136
20
113.44573601561639
30
2.999999999990111
 70
     32
  0
VERTEX
  8
MY3DLAYER
10
156.1094043916763
20
113.48855790936533
30
2.9999999999901164
 70
     32
  0
VERTEX
  8
MY3DLAYER
10
156.09905505979708
20
113.53299569492285
30
2.9999999999901203
 70
     32
  0
VERTEX
  8
MY3DLAYER
10
156.09022275898187
20
113.57904936727259
30
2.999999999990124
 70
     32
  0
VERTEX
  8
MY3DLAYER
10
156.0829583367365
20
113.62671892139814
30
2.9999999999901266
 70
     32
  0
VERTEX
  8
MY3DLAYER
10
156.0740626738856
20
113.67237411222325
30
2.9999999999901306
 70
     32
  0
VERTEX
  8
MY3DLAYER
10
156.06673333870023
20
113.71886498882029
30
2.9999999999901332
 70
     32
  0
VERTEX
  8
MY3DLAYER
10
156.0609197052323
20
113.76621644592075
30
2.999999999990136
 70
     32
  0
VERTEX
  8
MY3DLAYER
10
156.0565711475337
20
113.81445337825619
30
2.9999999999901377
 70
     32
  0
VERTEX
  8
MY3DLAYER
10
156.05363703965625
20
113.8636006805582
30
2.9999999999901386
 70
     32
  0
VERTEX
  8
MY3DLAYER
10
156.05206675565188
20
113.91368324755825
30
2.9999999999901394
 70
     32
  0
VERTEX
  8
MY3DLAYER
10
156.05180966957238
20
113.96472597398794
30
2.99999999999014
 70
     32
  0
VERTEX
  8
MY3DLAYER
10
156.05281515546963
20
114.01675375457877
30
2.999999999990139
 70
     32
  0
VERTEX
  8
MY3DLAYER
10
156.05503258739554
20
114.06979148406234
30
2.9999999999901386
 70
     32
  0
VERTEX
  8
MY3DLAYER
10
156.0584113394019
20
114.12386405717011
30
2.999999999990137
 70
     32
  0
VERTEX
  8
MY3DLAYER
10
156.06290078554065
20
114.17899636863369
30
2.999999999990135
 70
     32
  0
VERTEX
  8
MY3DLAYER
10
156.06845029986366
20
114.23521331318457
30
2.999999999990133
 70
     32
  0
VERTEX
  8
MY3DLAYER
10
156.0750092564227
20
114.29253978555434
30
2.99999999999013
 70
     32
  0
VERTEX
  8
MY3DLAYER
10
156.0825270292697
20
114.3510006804745
30
2.999999999990127
 70
     32
  0
VERTEX
  8
MY3DLAYER
10
156.09095299245655
20
114.41062089267663
30
2.9999999999901235
 70
     32
  0
VERTEX
  8
MY3DLAYER
10
156.10023652003505
20
114.47142531689224
30
2.99999999999012
 70
     32
  0
VERTEX
  8
MY3DLAYER
10
156.11033680705765
20
114.53242063489058
30
2.999999999990116
 70
     32
  0
VERTEX
  8
MY3DLAYER
10
156.12124664732343
20
114.59258037852295
30
2.999999999990111
 70
     32
  0
VERTEX
  8
MY3DLAYER
10
156.1329658130041
20
114.65187963738157
30
2.9999999999901066
 70
     32
  0
VERTEX
  8
MY3DLAYER
10
156.14549407627135
20
114.71029350105856
30
2.9999999999901013
 70
     32
  0
VERTEX
  8
MY3DLAYER
10
156.15883120929698
20
114.76779705914622
30
2.999999999990096
 70
     32
  0
VERTEX
  8
MY3DLAYER
10
156.17297698425267
20
114.82436540123669
30
2.99999999999009
 70
     32
  0
VERTEX
  8
MY3DLAYER
10
156.18793117331023
20
114.87997361692221
30
2.999999999990084
 70
     32
  0
VERTEX
  8
MY3DLAYER
10
156.20369354864135
20
114.93459679579496
30
2.9999999999900777
 70
     32
  0
VERTEX
  8
MY3DLAYER
10
156.22026388241778
20
114.98821002744714
30
2.999999999990071
 70
     32
  0
VERTEX
  8
MY3DLAYER
10
156.23764194681127
20
115.04078840147095
30
2.999999999990064
 70
     32
  0
VERTEX
  8
MY3DLAYER
10
156.2558275139935
20
115.0923070074586
30
2.9999999999900564
 70
     32
  0
VERTEX
  8
MY3DLAYER
10
156.27482035613627
20
115.14274093500228
30
2.9999999999900484
 70
     32
  0
VERTEX
  8
MY3DLAYER
10
156.2946202454113
20
115.1920652736942
30
2.999999999990041
 70
     32
  0
VERTEX
  8
MY3DLAYER
10
156.31522695399033
20
115.24025511312657
30
2.9999999999900324
 70
     32
  0
VERTEX
  8
MY3DLAYER
10
156.33664025404508
20
115.2872855428916
30
2.9999999999900235
 70
     32
  0
VERTEX
  8
MY3DLAYER
10
156.35885991774728
20
115.33313165258143
30
2.999999999990014
 70
     32
  0
VERTEX
  8
MY3DLAYER
10
156.38491687023188
20
115.37776669264993
30
2.9999999999900036
 70
     32
  0
VERTEX
  8
MY3DLAYER
10
156.41137833702197
20
115.42116371373079
30
2.999999999989993
 70
     32
  0
VERTEX
  8
MY3DLAYER
10
156.4382442428716
20
115.46329758594865
30
2.999999999989982
 70
     32
  0
VERTEX
  8
MY3DLAYER
10
156.46551451253472
20
115.5041431794281
30
2.9999999999899707
 70
     32
  0
VERTEX
  8
MY3DLAYER
10
156.49318907076528
20
115.54367536429379
30
2.999999999989959
 70
     32
  0
VERTEX
  8
MY3DLAYER
10
156.5212678423173
20
115.58186901067027
30
2.999999999989948
 70
     32
  0
VERTEX
  8
MY3DLAYER
10
156.54975075194463
20
115.61869898868218
30
2.9999999999899365
 70
     32
  0
VERTEX
  8
MY3DLAYER
10
156.57863772440135
20
115.65414016845413
30
2.9999999999899245
 70
     32
  0
VERTEX
  8
MY3DLAYER
10
156.60792868444142
20
115.68816742011076
30
2.9999999999899125
 70
     32
  0
VERTEX
  8
MY3DLAYER
10
156.63762355681874
20
115.72075561377659
30
2.9999999999899005
 70
     32
  0
VERTEX
  8
MY3DLAYER
10
156.66772226628737
20
115.75187961957634
30
2.999999999989888
 70
     32
  0
VERTEX
  8
MY3DLAYER
10
156.69822473760118
20
115.78151430763454
30
2.9999999999898757
 70
     32
  0
VERTEX
  8
MY3DLAYER
10
156.7291308955142
20
115.8096345480758
30
2.999999999989863
 70
     32
  0
VERTEX
  8
MY3DLAYER
10
156.7604406647804
20
115.83621521102478
30
2.99999999998985
 70
     32
  0
VERTEX
  8
MY3DLAYER
10
156.79215397015372
20
115.86123116660606
30
2.9999999999898375
 70
     32
  0
VERTEX
  8
MY3DLAYER
10
156.82427073638814
20
115.88465728494425
30
2.999999999989824
 70
     32
  0
SEQEND
  0
POLYLINE
 8
Layer0
 66
     1
70
    8
 10
0.0
 20
 0.0
 30
0.0
  0
VERTEX
  8
MY3DLAYER
10
153.92841354096427
20
119.81472954273487
30
2.9999999999910116
 70
     32
  0
VERTEX
  8
MY3DLAYER
10
153.898523956939
20
119.84907017986535
30
2.9999999999910236
 70
     32
  0
VERTEX
  8
MY3DLAYER
10
153.86704505131493
20
119.88100891893558
30
2.999999999991037
 70
     32
  0
VERTEX
  8
MY3DLAYER
10
153.8340018810207
20
119.91057147611296
30
2.9999999999910503
 70
     32
  0
VERTEX
  8
MY3DLAYER
10
153.79941950298476
20
119.9377835675649
30
2.9999999999910645
 70
     32
  0
VERTEX
  8
MY3DLAYER
10
153.76332297413572
20
119.96267090945875
30
2.999999999991079
 70
     32
  0
VERTEX
  8
MY3DLAYER
10
153.72573735140207
20
119.98525921796193
30
2.9999999999910947
 70
     32
  0
VERTEX
  8
MY3DLAYER
10
153.6866876917124
20
120.0055742092418
30
2.9999999999911107
 70
     32
  0
VERTEX
  8
MY3DLAYER
10
153.64619905199524
20
120.02364159946575
30
2.999999999991127
 70
     32
  0
VERTEX
  8
MY3DLAYER
10
153.60429648917912
20
120.03948710480117
30
2.9999999999911444
 70
     32
  0
VERTEX
  8
MY3DLAYER
10
153.56100506019263
20
120.05313644141545
30
2.999999999991162
 70
     32
  0
VERTEX
  8
MY3DLAYER
10
153.51634982196424
20
120.06461532547598
30
2.9999999999911804
 70
     32
  0
VERTEX
  8
MY3DLAYER
10
153.47035583142255
20
120.07394947315015
30
2.999999999991199
 70
     32
  0
VERTEX
  8
MY3DLAYER
10
153.42304814549607
20
120.08116460060536
30
2.9999999999912186
 70
     32
  0
VERTEX
  8
MY3DLAYER
10
153.37445182111335
20
120.08628642400895
30
2.999999999991238
 70
     32
  0
VERTEX
  8
MY3DLAYER
10
153.32459191520297
20
120.08934065952837
30
2.9999999999912585
 70
     32
  0
VERTEX
  8
MY3DLAYER
10
153.2734934846934
20
120.09035302333098
30
2.9999999999912794
 70
     32
  0
VERTEX
  8
MY3DLAYER
10
153.22199291953407
20
120.08934065952833
30
2.9999999999913007
 70
     32
  0
VERTEX
  8
MY3DLAYER
10
153.17094385355654
20
120.0862864240089
30
2.999999999991321
 70
     32
  0
VERTEX
  8
MY3DLAYER
10
153.1203972095128
20
120.08116460060526
30
2.999999999991342
 70
     32
  0
VERTEX
  8
MY3DLAYER
10
153.07040391015468
20
120.07394947315004
30
2.9999999999913625
 70
     32
  0
VERTEX
  8
MY3DLAYER
10
153.02101487823415
20
120.06461532547583
30
2.999999999991383
 70
     32
  0
VERTEX
  8
MY3DLAYER
10
152.97228103650318
20
120.05313644141529
30
2.999999999991403
 70
     32
  0
VERTEX
  8
MY3DLAYER
10
152.92425330771363
20
120.03948710480095
30
2.9999999999914224
 70
     32
  0
VERTEX
  8
MY3DLAYER
10
152.87698261461748
20
120.02364159946552
30
2.9999999999914415
 70
     32
  0
VERTEX
  8
MY3DLAYER
10
152.83051987996663
20
120.00557420924153
30
2.9999999999914606
 70
     32
  0
VERTEX
  8
MY3DLAYER
10
152.78491602651303
20
119.98525921796164
30
2.9999999999914793
 70
     32
  0
VERTEX
  8
MY3DLAYER
10
152.7402219770086
20
119.96267090945845
30
2.9999999999914975
 70
     32
  0
VERTEX
  8
MY3DLAYER
10
152.6964886542052
20
119.93778356756457
30
2.9999999999915157
 70
     32
  0
VERTEX
  8
MY3DLAYER
10
152.65376698085487
20
119.91057147611262
30
2.999999999991533
 70
     32
  0
VERTEX
  8
MY3DLAYER
10
152.61210787970947
20
119.88100891893521
30
2.9999999999915503
 70
     32
  0
VERTEX
  8
MY3DLAYER
10
152.57156227352093
20
119.84907017986494
30
2.9999999999915667
 70
     32
  0
VERTEX
  8
MY3DLAYER
10
152.5321810850412
20
119.81472954273444
30
2.9999999999915827
 70
     32
  0
VERTEX
  8
MY3DLAYER
10
152.49118294190265
20
119.78180707609752
30
2.9999999999915996
 70
     32
  0
VERTEX
  8
MY3DLAYER
10
152.45223287869658
20
119.74769354734102
30
2.999999999991615
 70
     32
  0
VERTEX
  8
MY3DLAYER
10
152.41535572661343
20
119.71241483002191
30
2.9999999999916307
 70
     32
  0
VERTEX
  8
MY3DLAYER
10
152.38057631684362
20
119.67599679769724
30
2.9999999999916445
 70
     32
  0
VERTEX
  8
MY3DLAYER
10
152.3479194805776
20
119.638465323924
30
2.999999999991658
 70
     32
  0
VERTEX
  8
MY3DLAYER
10
152.31741004900584
20
119.59984628225915
30
2.99999999999167
 70
     32
  0
VERTEX
  8
MY3DLAYER
10
152.2890728533188
20
119.56016554625973
30
2.9999999999916818
 70
     32
  0
VERTEX
  8
MY3DLAYER
10
152.2629327247069
20
119.51944898948277
30
2.9999999999916924
 70
     32
  0
VERTEX
  8
MY3DLAYER
10
152.2390144943606
20
119.4777224854852
30
2.999999999991702
 70
     32
  0
VERTEX
  8
MY3DLAYER
10
152.2173429934703
20
119.43501190782412
30
2.999999999991711
 70
     32
  0
VERTEX
  8
MY3DLAYER
10
152.19794305322654
20
119.39134313005644
30
2.9999999999917195
 70
     32
  0
VERTEX
  8
MY3DLAYER
10
152.18083950481974
20
119.34674202573923
30
2.999999999991726
 70
     32
  0
VERTEX
  8
MY3DLAYER
10
152.1660571794403
20
119.30123446842946
30
2.9999999999917324
 70
     32
  0
VERTEX
  8
MY3DLAYER
10
152.1536209082787
20
119.25484633168413
30
2.9999999999917373
 70
     32
  0
VERTEX
  8
MY3DLAYER
10
152.14355552252542
20
119.20760348906028
30
2.9999999999917417
 70
     32
  0
VERTEX
  8
MY3DLAYER
10
152.13588585337084
20
119.15953181411489
30
2.9999999999917417
 70
     32
  0
VERTEX
  8
MY3DLAYER
10
152.1306334372047
20
119.11449775932005
30
2.999999999991744
 70
     32
  0
VERTEX
  8
MY3DLAYER
10
152.1278038889137
20
119.06992039505614
30
2.999999999991745
 70
     32
  0
VERTEX
  8
MY3DLAYER
10
152.12739735480957
20
119.0258499026927
30
2.999999999991745
 70
     32
  0
VERTEX
  8
MY3DLAYER
10
152.1294139812041
20
118.9823364635992
30
2.9999999999917444
 70
     32
  0
VERTEX
  8
MY3DLAYER
10
152.13385391440897
20
118.93943025914515
30
2.9999999999917426
 70
     32
  0
VERTEX
  8
MY3DLAYER
10
152.1407173007359
20
118.89718147070005
30
2.99999999999174
 70
     32
  0
VERTEX
  8
MY3DLAYER
10
152.15000428649665
20
118.85564027963336
30
2.999999999991736
 70
     32
  0
VERTEX
  8
MY3DLAYER
10
152.1617150180029
20
118.81485686731465
30
2.9999999999917315
 70
     32
  0
VERTEX
  8
MY3DLAYER
10
152.17584964156643
20
118.77488141511337
30
2.9999999999917253
 70
     32
  0
VERTEX
  8
MY3DLAYER
10
152.19240830349892
20
118.73576410439902
30
2.9999999999917186
 70
     32
  0
VERTEX
  8
MY3DLAYER
10
152.21139115011218
20
118.69755511654111
30
2.9999999999917106
 70
     32
  0
VERTEX
  8
MY3DLAYER
10
152.23279832771786
20
118.66030463290917
30
2.999999999991702
 70
     32
  0
VERTEX
  8
MY3DLAYER
10
152.2566299826277
20
118.62406283487265
30
2.999999999991692
 70
     32
  0
VERTEX
  8
MY3DLAYER
10
152.28288626115344
20
118.58887990380104
30
2.9999999999916818
 70
     32
  0
VERTEX
  8
MY3DLAYER
10
152.3115673096068
20
118.55480602106387
30
2.9999999999916698
 70
     32
  0
VERTEX
  8
MY3DLAYER
10
152.34267327429953
20
118.52189136803065
30
2.999999999991657
 70
     32
  0
VERTEX
  8
MY3DLAYER
10
152.3755971869492
20
118.48754760129229
30
2.9999999999916436
 70
     32
  0
VERTEX
  8
MY3DLAYER
10
152.40973256279878
20
118.4556000176781
30
2.99999999999163
 70
     32
  0
VERTEX
  8
MY3DLAYER
10
152.44507947082383
20
118.42602371744005
30
2.999999999991615
 70
     32
  0
VERTEX
  8
MY3DLAYER
10
152.48163797999985
20
118.39879380083029
30
2.9999999999916
 70
     32
  0
VERTEX
  8
MY3DLAYER
10
152.51940815930237
20
118.3738853681008
30
2.9999999999915845
 70
     32
  0
VERTEX
  8
MY3DLAYER
10
152.55839007770695
20
118.35127351950368
30
2.999999999991569
 70
     32
  0
VERTEX
  8
MY3DLAYER
10
152.59858380418913
20
118.33093335529098
30
2.9999999999915525
 70
     32
  0
VERTEX
  8
MY3DLAYER
10
152.63998940772436
20
118.31283997571474
30
2.999999999991535
 70
     32
  0
VERTEX
  8
MY3DLAYER
10
152.68260695728824
20
118.29696848102704
30
2.999999999991518
 70
     32
  0
VERTEX
  8
MY3DLAYER
10
152.7264365218563
20
118.2832939714799
30
2.9999999999915
 70
     32
  0
VERTEX
  8
MY3DLAYER
10
152.771478170404
20
118.2717915473254
30
2.999999999991482
 70
     32
  0
VERTEX
  8
MY3DLAYER
10
152.81773197190697
20
118.26243630881561
30
2.999999999991463
 70
     32
  0
VERTEX
  8
MY3DLAYER
10
152.86519799534065
20
118.25520335620256
30
2.9999999999914433
 70
     32
  0
VERTEX
  8
MY3DLAYER
10
152.9138763096806
20
118.25006778973834
30
2.9999999999914237
 70
     32
  0
VERTEX
  8
MY3DLAYER
10
152.96376698390236
20
118.24700470967495
30
2.9999999999914033
 70
     32
  0
VERTEX
  8
MY3DLAYER
10
153.01487008698146
20
118.24598921626448
30
2.9999999999913824
 70
     32
  0
VERTEX
  8
MY3DLAYER
10
153.0661812986374
20
118.24700002564434
30
2.999999999991361
 70
     32
  0
VERTEX
  8
MY3DLAYER
10
153.1167127983722
20
118.25003230398853
30
2.9999999999913403
 70
     32
  0
VERTEX
  8
MY3DLAYER
10
153.16648940483537
20
118.25508582660409
30
2.9999999999913203
 70
     32
  0
VERTEX
  8
MY3DLAYER
10
153.21553593667636
20
118.26216036879795
30
2.9999999999913003
 70
     32
  0
VERTEX
  8
MY3DLAYER
10
153.26387721254457
20
118.27125570587711
30
2.9999999999912803
 70
     32
  0
VERTEX
  8
MY3DLAYER
10
153.31153805108946
20
118.28237161314857
30
2.9999999999912608
 70
     32
  0
VERTEX
  8
MY3DLAYER
10
153.3585432709605
20
118.29550786591933
30
2.9999999999912417
 70
     32
  0
VERTEX
  8
MY3DLAYER
10
153.4049176908071
20
118.31066423949636
30
2.9999999999912226
 70
     32
  0
VERTEX
  8
MY3DLAYER
10
153.45068612927872
20
118.32784050918666
30
2.999999999991204
 70
     32
  0
VERTEX
  8
MY3DLAYER
10
153.4958734050248
20
118.3470364502972
30
2.9999999999911857
 70
     32
  0
VERTEX
  8
MY3DLAYER
10
153.54050433669477
20
118.368251838135
30
2.9999999999911675
 70
     32
  0
VERTEX
  8
MY3DLAYER
10
153.5846037429381
20
118.39148644800703
30
2.9999999999911493
 70
     32
  0
VERTEX
  8
MY3DLAYER
10
153.6281964424042
20
118.41674005522026
30
2.9999999999911315
 70
     32
  0
VERTEX
  8
MY3DLAYER
10
153.67130725374255
20
118.44401243508172
30
2.9999999999911138
 70
     32
  0
VERTEX
  8
MY3DLAYER
10
153.71396099560258
20
118.47330336289836
30
2.9999999999910965
 70
     32
  0
VERTEX
  8
MY3DLAYER
10
153.75618248663366
20
118.50461261397723
30
2.999999999991079
 70
     32
  0
VERTEX
  8
MY3DLAYER
10
153.79698658802297
20
118.54056180618439
30
2.9999999999910623
 70
     32
  0
VERTEX
  8
MY3DLAYER
10
153.83538827382657
20
118.57729236217203
30
2.9999999999910467
 70
     32
  0
VERTEX
  8
MY3DLAYER
10
153.87141333462176
20
118.61477922563873
30
2.999999999991032
 70
     32
  0
VERTEX
  8
MY3DLAYER
10
153.90508756098595
20
118.6529973402829
30
2.9999999999910183
 70
     32
  0
VERTEX
  8
MY3DLAYER
10
153.93643674349647
20
118.6919216498031
30
2.9999999999910054
 70
     32
  0
VERTEX
  8
MY3DLAYER
10
153.9654866727307
20
118.73152709789782
30
2.9999999999909934
 70
     32
  0
VERTEX
  8
MY3DLAYER
10
153.99226313926593
20
118.77178862826558
30
2.9999999999909828
 70
     32
  0
VERTEX
  8
MY3DLAYER
10
154.01679193367957
20
118.81268118460488
30
2.9999999999909726
 70
     32
  0
VERTEX
  8
MY3DLAYER
10
154.03909884654894
20
118.85417971061422
30
2.9999999999909637
 70
     32
  0
VERTEX
  8
MY3DLAYER
10
154.05920966845144
20
118.89625914999212
30
2.9999999999909552
 70
     32
  0
VERTEX
  8
MY3DLAYER
10
154.07715018996433
20
118.93889444643708
30
2.999999999990948
 70
     32
  0
VERTEX
  8
MY3DLAYER
10
154.0929462016651
20
118.98206054364759
30
2.9999999999909415
 70
     32
  0
VERTEX
  8
MY3DLAYER
10
154.10662349413093
20
119.02573238532219
30
2.999999999990936
 70
     32
  0
VERTEX
  8
MY3DLAYER
10
154.1182078579393
20
119.06988491515936
30
2.9999999999909313
 70
     32
  0
VERTEX
  8
MY3DLAYER
10
154.12772508366754
20
119.11449307685763
30
2.9999999999909273
 70
     32
  0
VERTEX
  8
MY3DLAYER
10
154.13520096189296
20
119.15953181411548
30
2.999999999990924
 70
     32
  0
VERTEX
  8
MY3DLAYER
10
154.14045312723906
20
119.20760348906089
30
2.9999999999909246
 70
     32
  0
VERTEX
  8
MY3DLAYER
10
154.1432824581526
20
119.25484633168473
30
2.9999999999909237
 70
     32
  0
VERTEX
  8
MY3DLAYER
10
154.14368880832194
20
119.30123446843004
30
2.9999999999909237
 70
     32
  0
VERTEX
  8
MY3DLAYER
10
154.14167203143538
20
119.3467420257398
30
2.9999999999909246
 70
     32
  0
VERTEX
  8
MY3DLAYER
10
154.13723198118115
20
119.39134313005702
30
2.9999999999909264
 70
     32
  0
VERTEX
  8
MY3DLAYER
10
154.1303685112475
20
119.43501190782467
30
2.999999999990929
 70
     32
  0
VERTEX
  8
MY3DLAYER
10
154.12108147532274
20
119.47772248548577
30
2.999999999990933
 70
     32
  0
VERTEX
  8
MY3DLAYER
10
154.10937072709513
20
119.51944898948331
30
2.999999999990938
 70
     32
  0
VERTEX
  8
MY3DLAYER
10
154.09523612025293
20
119.56016554626027
30
2.9999999999909437
 70
     32
  0
VERTEX
  8
MY3DLAYER
10
154.07867750848445
20
119.59984628225968
30
2.9999999999909504
 70
     32
  0
VERTEX
  8
MY3DLAYER
10
154.05969474547794
20
119.63846532392448
30
2.999999999990958
 70
     32
  0
VERTEX
  8
MY3DLAYER
10
154.03828768492164
20
119.67599679769774
30
2.999999999990967
 70
     32
  0
VERTEX
  8
MY3DLAYER
10
154.01445618050386
20
119.7124148300224
30
2.9999999999909766
 70
     32
  0
VERTEX
  8
MY3DLAYER
10
153.98820008591287
20
119.74769354734147
30
2.999999999990987
 70
     32
  0
VERTEX
  8
MY3DLAYER
10
153.9595192548369
20
119.78180707609795
30
2.999999999990999
 70
     32
  0
VERTEX
  8
MY3DLAYER
10
153.92841354096427
20
119.81472954273487
30
2.9999999999910116
 70
     32
  0
SEQEND
  0
POLYLINE
 8
Layer0
 66
     1
70
    8
 10
0.0
 20
 0.0
 30
0.0
  0
VERTEX
  8
MY3DLAYER
10
185.00585952506162
20
119.55610614503162
30
2.999999999978304
 70
     32
  0
VERTEX
  8
MY3DLAYER
10
184.9307279210153
20
119.57811778031493
30
2.9999999999783347
 70
     32
  0
VERTEX
  8
MY3DLAYER
10
184.85403098631335
20
119.59889033438749
30
2.999999999978366
 70
     32
  0
VERTEX
  8
MY3DLAYER
10
184.77581920686265
20
119.61839882912005
30
2.999999999978398
 70
     32
  0
VERTEX
  8
MY3DLAYER
10
184.6961430685701
20
119.6366182863834
30
2.9999999999784306
 70
     32
  0
VERTEX
  8
MY3DLAYER
10
184.61505305734264
20
119.65352372804828
30
2.999999999978464
 70
     32
  0
VERTEX
  8
MY3DLAYER
10
184.53259965908714
20
119.66909017598552
30
2.9999999999784976
 70
     32
  0
VERTEX
  8
MY3DLAYER
10
184.44883335971056
20
119.68329265206584
30
2.999999999978532
 70
     32
  0
VERTEX
  8
MY3DLAYER
10
184.36380464511976
20
119.69610617816004
30
2.9999999999785665
 70
     32
  0
VERTEX
  8
MY3DLAYER
10
184.27756400122166
20
119.7075057761389
30
2.999999999978602
 70
     32
  0
VERTEX
  8
MY3DLAYER
10
184.19016191392322
20
119.71746646787317
30
2.9999999999786375
 70
     32
  0
VERTEX
  8
MY3DLAYER
10
184.10164886913128
20
119.72596327523361
30
2.999999999978674
 70
     32
  0
VERTEX
  8
MY3DLAYER
10
184.0120753527528
20
119.73297122009103
30
2.9999999999787104
 70
     32
  0
VERTEX
  8
MY3DLAYER
10
183.92149185069462
20
119.73846532431621
30
2.9999999999787477
 70
     32
  0
VERTEX
  8
MY3DLAYER
10
183.82994884886375
20
119.74242060977987
30
2.999999999978785
 70
     32
  0
VERTEX
  8
MY3DLAYER
10
183.73749683316706
20
119.74481209835285
30
2.9999999999788227
 70
     32
  0
VERTEX
  8
MY3DLAYER
10
183.64418628951142
20
119.74561481190587
30
2.999999999978861
 70
     32
  0
VERTEX
  8
MY3DLAYER
10
183.5122814162767
20
119.74379658146275
30
2.999999999978915
 70
     32
  0
VERTEX
  8
MY3DLAYER
10
183.38156070865375
20
119.73834199561729
30
2.999999999978968
 70
     32
  0
VERTEX
  8
MY3DLAYER
10
183.25199927901758
20
119.72925113233272
30
2.999999999979021
 70
     32
  0
VERTEX
  8
MY3DLAYER
10
183.1235722397433
20
119.71652406957229
30
2.9999999999790736
 70
     32
  0
VERTEX
  8
MY3DLAYER
10
182.99625470320584
20
119.70016088529923
30
2.9999999999791256
 70
     32
  0
VERTEX
  8
MY3DLAYER
10
182.87002178178028
20
119.68016165747683
30
2.9999999999791775
 70
     32
  0
VERTEX
  8
MY3DLAYER
10
182.74484858784163
20
119.65652646406834
30
2.9999999999792286
 70
     32
  0
VERTEX
  8
MY3DLAYER
10
182.62071023376492
20
119.62925538303695
30
2.9999999999792792
 70
     32
  0
VERTEX
  8
MY3DLAYER
10
182.49758183192517
20
119.59834849234598
30
2.99999999997933
 70
     32
  0
VERTEX
  8
MY3DLAYER
10
182.37543849469742
20
119.56380586995864
30
2.9999999999793796
 70
     32
  0
VERTEX
  8
MY3DLAYER
10
182.2542553344567
20
119.5256275938382
30
2.9999999999794293
 70
     32
  0
VERTEX
  8
MY3DLAYER
10
182.13400746357803
20
119.48381374194788
30
2.999999999979478
 70
     32
  0
VERTEX
  8
MY3DLAYER
10
182.01466999443645
20
119.43836439225096
30
2.999999999979527
 70
     32
  0
VERTEX
  8
MY3DLAYER
10
181.89621803940696
20
119.38927962271067
30
2.9999999999795754
 70
     32
  0
VERTEX
  8
MY3DLAYER
10
181.77862671086461
20
119.33655951129028
30
2.9999999999796234
 70
     32
  0
VERTEX
  8
MY3DLAYER
10
181.66187112118442
20
119.28020413595301
30
2.9999999999796714
 70
     32
  0
VERTEX
  8
MY3DLAYER
10
181.54673345147208
20
119.22325154488092
30
2.9999999999797184
 70
     32
  0
VERTEX
  8
MY3DLAYER
10
181.43399553447202
20
119.16230974990742
30
2.9999999999797615
 70
     32
  0
VERTEX
  8
MY3DLAYER
10
181.32363196001737
20
119.09742923568528
30
2.999999999979807
 70
     32
  0
VERTEX
  8
MY3DLAYER
10
181.21561731794125
20
119.02866048686738
30
2.999999999979851
 70
     32
  0
VERTEX
  8
MY3DLAYER
10
181.10992619807683
20
118.9560539881065
30
2.9999999999798943
 70
     32
  0
VERTEX
  8
MY3DLAYER
10
181.00653319025724
20
118.87966022405543
30
2.9999999999799365
 70
     32
  0
VERTEX
  8
MY3DLAYER
10
180.9054128843157
20
118.79952967936703
30
2.999999999979978
 70
     32
  0
VERTEX
  8
MY3DLAYER
10
180.8065398700852
20
118.71571283869405
30
2.999999999980018
 70
     32
  0
VERTEX
  8
MY3DLAYER
10
180.70988873739896
20
118.62826018668933
30
2.9999999999800577
 70
     32
  0
VERTEX
  8
MY3DLAYER
10
180.61543407609014
20
118.53722220800567
30
2.999999999980096
 70
     32
  0
VERTEX
  8
MY3DLAYER
10
180.52315047599186
20
118.4426493872959
30
2.9999999999801337
 70
     32
  0
VERTEX
  8
MY3DLAYER
10
180.43301252693726
20
118.3445922092128
30
2.999999999980171
 70
     32
  0
VERTEX
  8
MY3DLAYER
10
180.3449948187595
20
118.24310115840922
30
2.999999999980207
 70
     32
  0
VERTEX
  8
MY3DLAYER
10
180.25907194129164
20
118.13822671953791
30
2.999999999980242
 70
     32
  0
VERTEX
  8
MY3DLAYER
10
180.17521848436692
20
118.03001937725175
30
2.999999999980276
 70
     32
  0
VERTEX
  8
MY3DLAYER
10
180.09340903781847
20
117.91852961620349
30
2.9999999999803095
 70
     32
  0
VERTEX
  8
MY3DLAYER
10
180.01423142469068
20
117.80380090480637
30
2.999999999980342
 70
     32
  0
VERTEX
  8
MY3DLAYER
10
179.93830755866068
20
117.68584282080035
30
2.999999999980373
 70
     32
  0
VERTEX
  8
MY3DLAYER
10
179.8656631655106
20
117.56465501282818
30
2.999999999980403
 70
     32
  0
VERTEX
  8
MY3DLAYER
10
179.79632397102264
20
117.44023712953276
30
2.9999999999804308
 70
     32
  0
VERTEX
  8
MY3DLAYER
10
179.7303157009789
20
117.31258881955692
30
2.9999999999804583
 70
     32
  0
VERTEX
  8
MY3DLAYER
10
179.6676640811616
20
117.18170973154348
30
2.9999999999804836
 70
     32
  0
VERTEX
  8
MY3DLAYER
10
179.60839483735288
20
117.04759951413529
30
2.999999999980508
 70
     32
  0
VERTEX
  8
MY3DLAYER
10
179.55253369533486
20
116.91025781597514
30
2.9999999999805307
 70
     32
  0
VERTEX
  8
MY3DLAYER
10
179.50010638088975
20
116.76968428570592
30
2.999999999980552
 70
     32
  0
VERTEX
  8
MY3DLAYER
10
179.45113861979968
20
116.62587857197043
30
2.999999999980572
 70
     32
  0
VERTEX
  8
MY3DLAYER
10
179.40565613784682
20
116.47884032341155
30
2.9999999999805906
 70
     32
  0
VERTEX
  8
MY3DLAYER
10
179.36368466081333
20
116.32856918867208
30
2.9999999999806075
 70
     32
  0
VERTEX
  8
MY3DLAYER
10
179.32524991448136
20
116.17506481639484
30
2.9999999999806235
 70
     32
  0
VERTEX
  8
MY3DLAYER
10
179.29037762463304
20
116.01832685522271
30
2.9999999999806377
 70
     32
  0
VERTEX
  8
MY3DLAYER
10
179.2590935170506
20
115.8583549537985
30
2.99999999998065
 70
     32
  0
VERTEX
  8
MY3DLAYER
10
179.2314233175161
20
115.69514876076504
30
2.9999999999806617
 70
     32
  0
VERTEX
  8
MY3DLAYER
10
179.2047573379341
20
115.52547605099208
30
2.9999999999806723
 70
     32
  0
VERTEX
  8
MY3DLAYER
10
179.18291505746598
20
115.3590324299833
30
2.9999999999806817
 70
     32
  0
VERTEX
  8
MY3DLAYER
10
179.1658710534039
20
115.19581828964512
30
2.9999999999806883
 70
     32
  0
VERTEX
  8
MY3DLAYER
10
179.15359990303995
20
115.03583402188397
30
2.999999999980693
 70
     32
  0
VERTEX
  8
MY3DLAYER
10
179.1460761836663
20
114.87908001860623
30
2.9999999999806963
 70
     32
  0
VERTEX
  8
MY3DLAYER
10
179.14327447257511
20
114.72555667171837
30
2.9999999999806977
 70
     32
  0
VERTEX
  8
MY3DLAYER
10
179.14516934705844
20
114.57526437312677
30
2.9999999999806968
 70
     32
  0
VERTEX
  8
MY3DLAYER
10
179.15173538440848
20
114.42820351473783
30
2.999999999980694
 70
     32
  0
VERTEX
  8
MY3DLAYER
10
179.16294716191734
20
114.28437448845798
30
2.9999999999806892
 70
     32
  0
VERTEX
  8
MY3DLAYER
10
179.17877925687722
20
114.14377768619367
30
2.999999999980683
 70
     32
  0
VERTEX
  8
MY3DLAYER
10
179.19920624658016
20
114.00641349985126
30
2.9999999999806746
 70
     32
  0
VERTEX
  8
MY3DLAYER
10
179.22420270831836
20
113.87228232133718
30
2.9999999999806644
 70
     32
  0
VERTEX
  8
MY3DLAYER
10
179.25374321938395
20
113.74138454255785
30
2.9999999999806524
 70
     32
  0
VERTEX
  8
MY3DLAYER
10
179.287802357069
20
113.61372055541972
30
2.999999999980638
 70
     32
  0
VERTEX
  8
MY3DLAYER
10
179.32635469866577
20
113.48929075182915
30
2.9999999999806226
 70
     32
  0
VERTEX
  8
MY3DLAYER
10
179.36937482146632
20
113.36809552369256
30
2.999999999980605
 70
     32
  0
VERTEX
  8
MY3DLAYER
10
179.4162459386261
20
113.25033174159199
30
2.9999999999805858
 70
     32
  0
VERTEX
  8
MY3DLAYER
10
179.466401170928
20
113.13617912503054
30
2.9999999999805653
 70
     32
  0
VERTEX
  8
MY3DLAYER
10
179.5198907597293
20
113.02561233929647
30
2.9999999999805436
 70
     32
  0
VERTEX
  8
MY3DLAYER
10
179.57676494638721
20
112.91860604967792
30
2.99999999998052
 70
     32
  0
VERTEX
  8
MY3DLAYER
10
179.63707397225912
20
112.81513492146311
30
2.9999999999804956
 70
     32
  0
VERTEX
  8
MY3DLAYER
10
179.7008680787023
20
112.7151736199402
30
2.999999999980469
 70
     32
  0
VERTEX
  8
MY3DLAYER
10
179.7681975070741
20
112.61869681039741
30
2.9999999999804428
 70
     32
  0
VERTEX
  8
MY3DLAYER
10
179.83911249873177
20
112.52567915812293
30
2.999999999980414
 70
     32
  0
VERTEX
  8
MY3DLAYER
10
179.91366329503268
20
112.4360953284049
30
2.9999999999803837
 70
     32
  0
VERTEX
  8
MY3DLAYER
10
179.99190013733406
20
112.34991998653157
30
2.9999999999803517
 70
     32
  0
VERTEX
  8
MY3DLAYER
10
180.0738732669933
20
112.2671277977911
30
2.999999999980318
 70
     32
  0
VERTEX
  8
MY3DLAYER
10
180.15963292536765
20
112.18769342747167
30
2.999999999980283
 70
     32
  0
VERTEX
  8
MY3DLAYER
10
180.24922935381448
20
112.11159154086151
30
2.9999999999802465
 70
     32
  0
VERTEX
  8
MY3DLAYER
10
180.34271279369102
20
112.03879680324877
30
2.9999999999802083
 70
     32
  0
VERTEX
  8
MY3DLAYER
10
180.44013348635457
20
111.96928387992168
30
2.9999999999801683
 70
     32
  0
VERTEX
  8
MY3DLAYER
10
180.54154167316253
20
111.90302743616836
30
2.9999999999801266
 70
     32
  0
VERTEX
  8
MY3DLAYER
10
180.64313392848524
20
111.84344660279253
30
2.9999999999800853
 70
     32
  0
VERTEX
  8
MY3DLAYER
10
180.74750347512344
20
111.7875302649537
30
2.9999999999800426
 70
     32
  0
VERTEX
  8
MY3DLAYER
10
180.85459982508002
20
111.73530318068654
30
2.9999999999799987
 70
     32
  0
VERTEX
  8
MY3DLAYER
10
180.96437249035793
20
111.68679010802559
30
2.999999999979954
 70
     32
  0
VERTEX
  8
MY3DLAYER
10
181.07677098296003
20
111.64201580500546
30
2.999999999979908
 70
     32
  0
VERTEX
  8
MY3DLAYER
10
181.1917448148893
20
111.60100502966068
30
2.999999999979861
 70
     32
  0
VERTEX
  8
MY3DLAYER
10
181.3092434981486
20
111.56378254002588
30
2.9999999999798126
 70
     32
  0
VERTEX
  8
MY3DLAYER
10
181.42921654474097
20
111.53037309413565
30
2.9999999999797637
 70
     32
  0
VERTEX
  8
MY3DLAYER
10
181.5516134666692
20
111.50080145002454
30
2.9999999999797136
 70
     32
  0
VERTEX
  8
MY3DLAYER
10
181.67638377593627
20
111.47509236572718
30
2.9999999999796625
 70
     32
  0
VERTEX
  8
MY3DLAYER
10
181.80347698454514
20
111.4532705992781
30
2.9999999999796105
 70
     32
  0
VERTEX
  8
MY3DLAYER
10
181.93284260449866
20
111.43536090871191
30
2.9999999999795577
 70
     32
  0
VERTEX
  8
MY3DLAYER
10
182.0644301477998
20
111.42138805206321
30
2.999999999979504
 70
     32
  0
VERTEX
  8
MY3DLAYER
10
182.1981891264515
20
111.41137678736659
30
2.9999999999794493
 70
     32
  0
VERTEX
  8
MY3DLAYER
10
182.3340690524566
20
111.4053518726566
30
2.9999999999793934
 70
     32
  0
VERTEX
  8
MY3DLAYER
10
182.4720194378181
20
111.40333806596782
30
2.999999999979337
 70
     32
  0
VERTEX
  8
MY3DLAYER
10
182.57483276309912
20
111.40434574573982
30
2.9999999999792952
 70
     32
  0
VERTEX
  8
MY3DLAYER
10
182.676435271042
20
111.40736917954008
30
2.9999999999792535
 70
     32
  0
VERTEX
  8
MY3DLAYER
10
182.77682680279403
20
111.41240895909498
30
2.9999999999792126
 70
     32
  0
VERTEX
  8
MY3DLAYER
10
182.87600719950242
20
111.419465676131
30
2.999999999979172
 70
     32
  0
VERTEX
  8
MY3DLAYER
10
182.9739763023144
20
111.42853992237457
30
2.9999999999791322
 70
     32
  0
VERTEX
  8
MY3DLAYER
10
183.07073395237734
20
111.43963228955208
30
2.9999999999790927
 70
     32
  0
VERTEX
  8
MY3DLAYER
10
183.16627999083846
20
111.45274336939
30
2.9999999999790536
 70
     32
  0
VERTEX
  8
MY3DLAYER
10
183.260614258845
20
111.46787375361477
30
2.999999999979015
 70
     32
  0
VERTEX
  8
MY3DLAYER
10
183.35373659754424
20
111.48502403395281
30
2.9999999999789764
 70
     32
  0
VERTEX
  8
MY3DLAYER
10
183.44564684808353
20
111.50419480213053
30
2.999999999978939
 70
     32
  0
VERTEX
  8
MY3DLAYER
10
183.53634485160995
20
111.52538664987436
30
2.999999999978902
 70
     32
  0
VERTEX
  8
MY3DLAYER
10
183.62583044927098
20
111.54860016891078
30
2.9999999999788654
 70
     32
  0
VERTEX
  8
MY3DLAYER
10
183.71410348221374
20
111.5738359509662
30
2.9999999999788294
 70
     32
  0
VERTEX
  8
MY3DLAYER
10
183.80116379158554
20
111.60109458776702
30
2.999999999978794
 70
     32
  0
VERTEX
  8
MY3DLAYER
10
183.88701121853367
20
111.63037667103973
30
2.9999999999787588
 70
     32
  0
VERTEX
  8
MY3DLAYER
10
183.97164560420538
20
111.66168279251072
30
2.999999999978724
 70
     32
  0
VERTEX
  8
MY3DLAYER
10
184.05203093773974
20
111.6946114944658
30
2.9999999999786913
 70
     32
  0
VERTEX
  8
MY3DLAYER
10
184.13157918843422
20
111.72877777354708
30
2.999999999978659
 70
     32
  0
VERTEX
  8
MY3DLAYER
10
184.21026566304943
20
111.764206822753
30
2.9999999999786264
 70
     32
  0
VERTEX
  8
MY3DLAYER
10
184.28806566834598
20
111.80092383508205
30
2.999999999978595
 70
     32
  0
VERTEX
  8
MY3DLAYER
10
184.36495451108442
20
111.8389540035326
30
2.9999999999785634
 70
     32
  0
VERTEX
  8
MY3DLAYER
10
184.44090749802544
20
111.87832252110319
30
2.9999999999785323
 70
     32
  0
VERTEX
  8
MY3DLAYER
10
184.51589993592958
20
111.91905458079219
30
2.9999999999785016
 70
     32
  0
VERTEX
  8
MY3DLAYER
10
184.58990713155754
20
111.96117537559815
30
2.9999999999784714
 70
     32
  0
VERTEX
  8
MY3DLAYER
10
184.66290439166983
20
112.00471009851944
30
2.9999999999784417
 70
     32
  0
VERTEX
  8
MY3DLAYER
10
184.73486702302708
20
112.04968394255451
30
2.9999999999784124
 70
     32
  0
VERTEX
  8
MY3DLAYER
10
184.80577033238998
20
112.09612210070185
30
2.999999999978383
 70
     32
  0
VERTEX
  8
MY3DLAYER
10
184.87558962651903
20
112.14404976595989
30
2.9999999999783546
 70
     32
  0
VERTEX
  8
MY3DLAYER
10
184.9443002121749
20
112.1934921313271
30
2.9999999999783267
 70
     32
  0
VERTEX
  8
MY3DLAYER
10
185.01187739611822
20
112.24447438980191
30
2.9999999999782987
 70
     32
  0
VERTEX
  8
MY3DLAYER
10
185.07829648510952
20
112.29702173438275
30
2.9999999999782716
 70
     32
  0
VERTEX
  8
MY3DLAYER
10
185.14353278590949
20
112.35115935806814
30
2.999999999978245
 70
     32
  0
VERTEX
  8
MY3DLAYER
10
185.20452651966534
20
112.40346730046689
30
2.99999999997822
 70
     32
  0
VERTEX
  8
MY3DLAYER
10
185.2646642712863
20
112.45693864809726
30
2.9999999999781957
 70
     32
  0
VERTEX
  8
MY3DLAYER
10
185.3238951911764
20
112.51152262284694
30
2.9999999999781717
 70
     32
  0
VERTEX
  8
MY3DLAYER
10
185.38216842973947
20
112.56716844660359
30
2.9999999999781477
 70
     32
  0
VERTEX
  8
MY3DLAYER
10
185.43943313737955
20
112.62382534125489
30
2.999999999978124
 70
     32
  0
VERTEX
  8
MY3DLAYER
10
185.49563846450053
20
112.68144252868848
30
2.999999999978101
 70
     32
  0
VERTEX
  8
MY3DLAYER
10
185.55073356150632
20
112.73996923079206
30
2.9999999999780775
 70
     32
  0
VERTEX
  8
MY3DLAYER
10
185.6046675788009
20
112.79935466945327
30
2.9999999999780553
 70
     32
  0
VERTEX
  8
MY3DLAYER
10
185.6573896667882
20
112.85954806655977
30
2.9999999999780336
 70
     32
  0
VERTEX
  8
MY3DLAYER
10
185.70884897587212
20
112.92049864399927
30
2.9999999999780127
 70
     32
  0
VERTEX
  8
MY3DLAYER
10
185.75899465645662
20
112.98215562365941
30
2.9999999999779923
 70
     32
  0
VERTEX
  8
MY3DLAYER
10
185.8077758589457
20
113.04446822742783
30
2.999999999977972
 70
     32
  0
VERTEX
  8
MY3DLAYER
10
185.85514173374315
20
113.10738567719226
30
2.9999999999779527
 70
     32
  0
VERTEX
  8
MY3DLAYER
10
185.90104143125308
20
113.17085719484028
30
2.999999999977934
 70
     32
  0
VERTEX
  8
MY3DLAYER
10
185.94542410187927
20
113.23483200225965
30
2.999999999977916
 70
     32
  0
VERTEX
  8
MY3DLAYER
10
185.9882388960258
20
113.29925932133798
30
2.999999999977898
 70
     32
  0
VERTEX
  8
MY3DLAYER
10
186.02944982065904
20
113.36693238269493
30
2.9999999999778817
 70
     32
  0
VERTEX
  8
MY3DLAYER
10
186.06907148012806
20
113.4342485632016
30
2.9999999999778657
 70
     32
  0
VERTEX
  8
MY3DLAYER
10
186.10712892091055
20
113.5012588455977
30
2.9999999999778497
 70
     32
  0
VERTEX
  8
MY3DLAYER
10
186.1436471894842
20
113.56801421262301
30
2.999999999977835
 70
     32
  0
VERTEX
  8
MY3DLAYER
10
186.17865133232678
20
113.63456564701721
30
2.999999999977821
 70
     32
  0
VERTEX
  8
MY3DLAYER
10
186.21216639591594
20
113.70096413152011
30
2.999999999977807
 70
     32
  0
VERTEX
  8
MY3DLAYER
10
186.2442174267294
20
113.76726064887139
30
2.9999999999777938
 70
     32
  0
VERTEX
  8
MY3DLAYER
10
186.27482947124483
20
113.83350618181078
30
2.9999999999777813
 70
     32
  0
VERTEX
  8
MY3DLAYER
10
186.30402757593998
20
113.89975171307805
30
2.9999999999777693
 70
     32
  0
VERTEX
  8
MY3DLAYER
10
186.3318367872926
20
113.96604822541292
30
2.999999999977758
 70
     32
  0
VERTEX
  8
MY3DLAYER
10
186.35828215178026
20
114.03244670155513
30
2.999999999977747
 70
     32
  0
VERTEX
  8
MY3DLAYER
10
186.38338871588078
20
114.09899812424442
30
2.999999999977737
 70
     32
  0
VERTEX
  8
MY3DLAYER
10
186.40718152607184
20
114.1657534762205
30
2.999999999977727
 70
     32
  0
VERTEX
  8
MY3DLAYER
10
186.42968562883112
20
114.23276374022312
30
2.9999999999777183
 70
     32
  0
VERTEX
  8
MY3DLAYER
10
186.45092607063637
20
114.30007989899205
30
2.9999999999777094
 70
     32
  0
VERTEX
  8
MY3DLAYER
10
186.47092789796525
20
114.36775293526696
30
2.9999999999777014
 70
     32
  0
VERTEX
  8
MY3DLAYER
10
184.48861272963813
20
114.36775293526638
30
2.999999999978512
 70
     32
  0
VERTEX
  8
MY3DLAYER
10
184.4754810032994
20
114.33240617282152
30
2.999999999978517
 70
     32
  0
VERTEX
  8
MY3DLAYER
10
184.46192334679844
20
114.29746595737014
30
2.9999999999785225
 70
     32
  0
VERTEX
  8
MY3DLAYER
10
184.44791403853344
20
114.26293192208784
30
2.9999999999785287
 70
     32
  0
VERTEX
  8
MY3DLAYER
10
184.4334273569026
20
114.22880370015021
30
2.999999999978534
 70
     32
  0
VERTEX
  8
MY3DLAYER
10
184.41843758030404
20
114.19508092473285
30
2.9999999999785407
 70
     32
  0
VERTEX
  8
MY3DLAYER
10
184.40291898713593
20
114.16176322901137
30
2.999999999978547
 70
     32
  0
VERTEX
  8
MY3DLAYER
10
184.38684585579654
20
114.12885024616133
30
2.999999999978553
 70
     32
  0
VERTEX
  8
MY3DLAYER
10
184.37019246468395
20
114.09634160935835
30
2.9999999999785603
 70
     32
  0
VERTEX
  8
MY3DLAYER
10
184.3529330921964
20
114.06423695177804
30
2.9999999999785674
 70
     32
  0
VERTEX
  8
MY3DLAYER
10
184.33504201673202
20
114.03253590659598
30
2.9999999999785745
 70
     32
  0
VERTEX
  8
MY3DLAYER
10
184.31649351668904
20
114.00123810698776
30
2.999999999978582
 70
     32
  0
VERTEX
  8
MY3DLAYER
10
184.29726187046558
20
113.97034318612894
30
2.99999999997859
 70
     32
  0
VERTEX
  8
MY3DLAYER
10
184.27732135645985
20
113.9398507771952
30
2.999999999978598
 70
     32
  0
VERTEX
  8
MY3DLAYER
10
184.25664625307
20
113.90976051336209
30
2.9999999999786064
 70
     32
  0
VERTEX
  8
MY3DLAYER
10
184.23521083869426
20
113.8800720278052
30
2.9999999999786153
 70
     32
  0
VERTEX
  8
MY3DLAYER
10
184.21298939173073
20
113.85078495370013
30
2.9999999999786247
 70
     32
  0
VERTEX
  8
MY3DLAYER
10
184.19015793668447
20
113.82209247056714
30
2.9999999999786335
 70
     32
  0
VERTEX
  8
MY3DLAYER
10
184.16689271125753
20
113.79415465705789
30
2.9999999999786433
 70
     32
  0
VERTEX
  8
MY3DLAYER
10
184.143169116268
20
113.76692141478252
30
2.999999999978653
 70
     32
  0
VERTEX
  8
MY3DLAYER
10
184.11896255253416
20
113.74034264535116
30
2.999999999978663
 70
     32
  0
VERTEX
  8
MY3DLAYER
10
184.094248420874
20
113.71436825037397
30
2.999999999978673
 70
     32
  0
VERTEX
  8
MY3DLAYER
10
184.0690021221058
20
113.68894813146112
30
2.9999999999786833
 70
     32
  0
VERTEX
  8
MY3DLAYER
10
184.04319905704762
20
113.66403219022276
30
2.999999999978694
 70
     32
  0
VERTEX
  8
MY3DLAYER
10
184.0168146265177
20
113.63957032826902
30
2.9999999999787046
 70
     32
  0
VERTEX
  8
MY3DLAYER
10
183.98982423133407
20
113.61551244721007
30
2.9999999999787157
 70
     32
  0
VERTEX
  8
MY3DLAYER
10
183.96220327231495
20
113.59180844865605
30
2.9999999999787272
 70
     32
  0
VERTEX
  8
MY3DLAYER
10
183.93392715027852
20
113.56840823421713
30
2.9999999999787383
 70
     32
  0
VERTEX
  8
MY3DLAYER
10
183.90497126604285
20
113.54526170550346
30
2.9999999999787503
 70
     32
  0
VERTEX
  8
MY3DLAYER
10
183.87531102042618
20
113.52231876412519
30
2.9999999999787623
 70
     32
  0
VERTEX
  8
MY3DLAYER
10
183.84492181424662
20
113.49952931169248
30
2.9999999999787748
 70
     32
  0
VERTEX
  8
MY3DLAYER
10
183.81377904832223
20
113.47684324981546
30
2.9999999999787876
 70
     32
  0
VERTEX
  8
MY3DLAYER
10
183.78185812347132
20
113.4542104801043
30
2.9999999999788005
 70
     32
  0
VERTEX
  8
MY3DLAYER
10
183.75237223823788
20
113.43502841777592
30
2.9999999999788125
 70
     32
  0
VERTEX
  8
MY3DLAYER
10
183.72210447775993
20
113.4162805917266
30
2.999999999978825
 70
     32
  0
VERTEX
  8
MY3DLAYER
10
183.69107997212194
20
113.39799153529788
30
2.999999999978838
 70
     32
  0
VERTEX
  8
MY3DLAYER
10
183.65932385140823
20
113.38018578183133
30
2.9999999999788507
 70
     32
  0
VERTEX
  8
MY3DLAYER
10
183.62686124570325
20
113.36288786466854
30
2.999999999978864
 70
     32
  0
VERTEX
  8
MY3DLAYER
10
183.5937172850914
20
113.34612231715107
30
2.9999999999788773
 70
     32
  0
VERTEX
  8
MY3DLAYER
10
183.5599170996571
20
113.32991367262049
30
2.999999999978891
 70
     32
  0
VERTEX
  8
MY3DLAYER
10
183.52548581948474
20
113.3142864644184
30
2.9999999999789053
 70
     32
  0
VERTEX
  8
MY3DLAYER
10
183.49044857465873
20
113.29926522588636
30
2.99999999997892
 70
     32
  0
VERTEX
  8
MY3DLAYER
10
183.4548304952635
20
113.28487449036594
30
2.999999999978934
 70
     32
  0
VERTEX
  8
MY3DLAYER
10
183.41865671138342
20
113.27113879119874
30
2.9999999999789493
 70
     32
  0
VERTEX
  8
MY3DLAYER
10
183.38195235310292
20
113.25808266172625
30
2.9999999999789644
 70
     32
  0
VERTEX
  8
MY3DLAYER
10
183.34474255050642
20
113.24573063529013
30
2.9999999999789795
 70
     32
  0
VERTEX
  8
MY3DLAYER
10
183.3070524336783
20
113.23410724523193
30
2.9999999999789946
 70
     32
  0
VERTEX
  8
MY3DLAYER
10
183.268907132703
20
113.2232370248932
30
2.9999999999790106
 70
     32
  0
VERTEX
  8
MY3DLAYER
10
183.23033177766487
20
113.21314450761552
30
2.999999999979026
 70
     32
  0
VERTEX
  8
MY3DLAYER
10
183.1915423441831
20
113.20365281819572
30
2.9999999999790417
 70
     32
  0
VERTEX
  8
MY3DLAYER
10
183.15270372696875
20
113.19458602451425
30
2.999999999979058
 70
     32
  0
VERTEX
  8
MY3DLAYER
10
183.11376523736874
20
113.18596999427561
30
2.999999999979074
 70
     32
  0
VERTEX
  8
MY3DLAYER
10
183.07467618672987
20
113.17783059518433
30
2.9999999999790896
 70
     32
  0
VERTEX
  8
MY3DLAYER
10
183.03538588639898
20
113.170193694945
30
2.999999999979106
 70
     32
  0
VERTEX
  8
MY3DLAYER
10
182.99584364772292
20
113.16308516126205
30
2.999999999979122
 70
     32
  0
VERTEX
  8
MY3DLAYER
10
182.9559987820485
20
113.15653086184012
30
2.9999999999791385
 70
     32
  0
VERTEX
  8
MY3DLAYER
10
182.9158006007226
20
113.1505566643837
30
2.9999999999791545
 70
     32
  0
VERTEX
  8
MY3DLAYER
10
182.87519841509203
20
113.14518843659731
30
2.9999999999791713
 70
     32
  0
VERTEX
  8
MY3DLAYER
10
182.83414153650364
20
113.1404520461855
30
2.999999999979188
 70
     32
  0
VERTEX
  8
MY3DLAYER
10
182.79257927630425
20
113.13637336085283
30
2.999999999979205
 70
     32
  0
VERTEX
  8
MY3DLAYER
10
182.75046094584073
20
113.1329782483038
30
2.9999999999792224
 70
     32
  0
VERTEX
  8
MY3DLAYER
10
182.70773585645986
20
113.13029257624297
30
2.9999999999792397
 70
     32
  0
VERTEX
  8
MY3DLAYER
10
182.66435331950856
20
113.12834221237482
30
2.9999999999792575
 70
     32
  0
VERTEX
  8
MY3DLAYER
10
182.62026264633357
20
113.12715302440394
30
2.9999999999792757
 70
     32
  0
VERTEX
  8
MY3DLAYER
10
182.57541314828185
20
113.12675088003486
30
2.999999999979294
 70
     32
  0
VERTEX
  8
MY3DLAYER
10
182.50834869079824
20
113.12776168941468
30
2.9999999999793214
 70
     32
  0
VERTEX
  8
MY3DLAYER
10
182.4428755740153
20
113.13079396775885
30
2.999999999979348
 70
     32
  0
VERTEX
  8
MY3DLAYER
10
182.37896845256128
20
113.13584749037436
30
2.9999999999793743
 70
     32
  0
VERTEX
  8
MY3DLAYER
10
182.31660198106454
20
113.14292203256817
30
2.9999999999793996
 70
     32
  0
VERTEX
  8
MY3DLAYER
10
182.25575081415337
20
113.15201736964731
30
2.9999999999794245
 70
     32
  0
VERTEX
  8
MY3DLAYER
10
182.1963896064562
20
113.16313327691874
30
2.999999999979449
 70
     32
  0
VERTEX
  8
MY3DLAYER
10
182.1384930126013
20
113.17626952968943
30
2.9999999999794724
 70
     32
  0
VERTEX
  8
MY3DLAYER
10
182.08203568721697
20
113.19142590326646
30
2.999999999979496
 70
     32
  0
VERTEX
  8
MY3DLAYER
10
182.02699228493165
20
113.20860217295673
30
2.999999999979518
 70
     32
  0
VERTEX
  8
MY3DLAYER
10
181.97333746037356
20
113.22779811406724
30
2.9999999999795404
 70
     32
  0
VERTEX
  8
MY3DLAYER
10
181.92104586817112
20
113.24901350190503
30
2.9999999999795612
 70
     32
  0
VERTEX
  8
MY3DLAYER
10
181.87009216295263
20
113.272248111777
30
2.999999999979582
 70
     32
  0
VERTEX
  8
MY3DLAYER
10
181.82045099934643
20
113.29750171899022
30
2.9999999999796025
 70
     32
  0
VERTEX
  8
MY3DLAYER
10
181.77209703198088
20
113.32477409885165
30
2.9999999999796225
 70
     32
  0
VERTEX
  8
MY3DLAYER
10
181.72500491548425
20
113.35406502666828
30
2.9999999999796416
 70
     32
  0
VERTEX
  8
MY3DLAYER
10
181.67914930448492
20
113.38537427774709
30
2.9999999999796603
 70
     32
  0
VERTEX
  8
MY3DLAYER
10
181.63490872379685
20
113.41870199603098
30
2.9999999999796785
 70
     32
  0
VERTEX
  8
MY3DLAYER
10
181.59266136241362
20
113.45404862282396
30
2.999999999979696
 70
     32
  0
VERTEX
  8
MY3DLAYER
10
181.55238217385755
20
113.49141429921234
30
2.9999999999797122
 70
     32
  0
VERTEX
  8
MY3DLAYER
10
181.51404611165094
20
113.53079916628243
30
2.999999999979728
 70
     32
  0
VERTEX
  8
MY3DLAYER
10
181.47762812931614
20
113.57220336512057
30
2.999999999979743
 70
     32
  0
VERTEX
  8
MY3DLAYER
10
181.44310318037532
20
113.61562703681305
30
2.999999999979757
 70
     32
  0
VERTEX
  8
MY3DLAYER
10
181.41044621835087
20
113.66107032244618
30
2.9999999999797704
 70
     32
  0
VERTEX
  8
MY3DLAYER
10
181.37963219676507
20
113.70853336310624
30
2.9999999999797833
 70
     32
  0
VERTEX
  8
MY3DLAYER
10
181.3506360691402
20
113.75801629987959
30
2.999999999979795
 70
     32
  0
VERTEX
  8
MY3DLAYER
10
181.32343278899853
20
113.80951927385252
30
2.999999999979806
 70
     32
  0
VERTEX
  8
MY3DLAYER
10
181.29799730986244
20
113.86304242611132
30
2.999999999979816
 70
     32
  0
VERTEX
  8
MY3DLAYER
10
181.2743045852541
20
113.91858589774232
30
2.999999999979826
 70
     32
  0
VERTEX
  8
MY3DLAYER
10
181.2523295686959
20
113.97614982983181
30
2.999999999979835
 70
     32
  0
VERTEX
  8
MY3DLAYER
10
181.23204721371013
20
114.03573436346612
30
2.9999999999798432
 70
     32
  0
VERTEX
  8
MY3DLAYER
10
181.21343247381904
20
114.09733963973157
30
2.9999999999798512
 70
     32
  0
VERTEX
  8
MY3DLAYER
10
181.19646030254492
20
114.16096579971445
30
2.999999999979858
 70
     32
  0
VERTEX
  8
MY3DLAYER
10
181.18131101899039
20
114.22661826088516
30
2.999999999979864
 70
     32
  0
VERTEX
  8
MY3DLAYER
10
181.1681816399098
20
114.29431889102949
30
2.9999999999798694
 70
     32
  0
VERTEX
  8
MY3DLAYER
10
181.15707216530313
20
114.3640925067067
30
2.999999999979874
 70
     32
  0
VERTEX
  8
MY3DLAYER
10
181.1479825951704
20
114.43596392447604
30
2.999999999979878
 70
     32
  0
VERTEX
  8
MY3DLAYER
10
181.1409129295116
20
114.50995796089681
30
2.9999999999798805
 70
     32
  0
VERTEX
  8
MY3DLAYER
10
181.1358631683267
20
114.58609943252827
30
2.9999999999798828
 70
     32
  0
VERTEX
  8
MY3DLAYER
10
181.1328333116158
20
114.66441315592971
30
2.999999999979884
 70
     32
  0
VERTEX
  8
MY3DLAYER
10
181.1318233593788
20
114.7449239476604
30
2.9999999999798845
 70
     32
  0
VERTEX
  8
MY3DLAYER
10
181.13283331161574
20
114.82765662427961
30
2.999999999979884
 70
     32
  0
VERTEX
  8
MY3DLAYER
10
181.13586316832664
20
114.91263600234664
30
2.9999999999798828
 70
     32
  0
VERTEX
  8
MY3DLAYER
10
181.14091292951144
20
114.99988689842075
30
2.9999999999798805
 70
     32
  0
VERTEX
  8
MY3DLAYER
10
181.1479825951702
20
115.08943412906117
30
2.999999999979878
 70
     32
  0
VERTEX
  8
MY3DLAYER
10
181.15707216530288
20
115.18130251082727
30
2.999999999979874
 70
     32
  0
VERTEX
  8
MY3DLAYER
10
181.1681816399095
20
115.27551686027824
30
2.99999999997987
 70
     32
  0
VERTEX
  8
MY3DLAYER
10
181.18131101899004
20
115.37210199397342
30
2.999999999979864
 70
     32
  0
VERTEX
  8
MY3DLAYER
10
181.19646030254452
20
115.47108272847203
30
2.9999999999798583
 70
     32
  0
VERTEX
  8
MY3DLAYER
10
181.2134277852244
20
115.57026843082689
30
2.9999999999798512
 70
     32
  0
VERTEX
  8
MY3DLAYER
10
181.23201171151715
20
115.66748551452181
30
2.9999999999798437
 70
     32
  0
VERTEX
  8
MY3DLAYER
10
181.25221200617668
20
115.76278436576276
30
2.9999999999798352
 70
     32
  0
VERTEX
  8
MY3DLAYER
10
181.27402859395698
20
115.85621537075565
30
2.9999999999798264
 70
     32
  0
VERTEX
  8
MY3DLAYER
10
181.297461399612
20
115.94782891570638
30
2.999999999979817
 70
     32
  0
VERTEX
  8
MY3DLAYER
10
181.32251034789573
20
116.03767538682088
30
2.999999999979807
 70
     32
  0
VERTEX
  8
MY3DLAYER
10
181.34917536356215
20
116.12580517030507
30
2.9999999999797957
 70
     32
  0
VERTEX
  8
MY3DLAYER
10
181.3774563713652
20
116.21226865236484
30
2.999999999979784
 70
     32
  0
VERTEX
  8
MY3DLAYER
10
181.40735329605891
20
116.29711621920617
30
2.999999999979772
 70
     32
  0
VERTEX
  8
MY3DLAYER
10
181.43886606239715
20
116.38039825703491
30
2.9999999999797593
 70
     32
  0
VERTEX
  8
MY3DLAYER
10
181.47199459513396
20
116.46216515205703
30
2.9999999999797455
 70
     32
  0
VERTEX
  8
MY3DLAYER
10
181.5067388190233
20
116.54246729047841
30
2.9999999999797313
 70
     32
  0
VERTEX
  8
MY3DLAYER
10
181.5430986588191
20
116.62135505850499
30
2.9999999999797167
 70
     32
  0
VERTEX
  8
MY3DLAYER
10
181.5810740392754
20
116.69887884234268
30
2.999999999979701
 70
     32
  0
VERTEX
  8
MY3DLAYER
10
181.62066488514608
20
116.77508902819741
30
2.9999999999796847
 70
     32
  0
VERTEX
  8
MY3DLAYER
10
181.66187112118516
20
116.85003600227509
30
2.9999999999796683
 70
     32
  0
VERTEX
  8
MY3DLAYER
10
181.7044963110081
20
116.92012554778715
30
2.9999999999796505
 70
     32
  0
VERTEX
  8
MY3DLAYER
10
181.7483611980142
20
116.9881936945645
30
2.9999999999796327
 70
     32
  0
VERTEX
  8
MY3DLAYER
10
181.79349067400875
20
117.05424065726733
30
2.999999999979614
 70
     32
  0
VERTEX
  8
MY3DLAYER
10
181.83990963079705
20
117.11826665055588
30
2.9999999999795954
 70
     32
  0
VERTEX
  8
MY3DLAYER
10
181.8876429601844
20
117.18027188909033
30
2.999999999979576
 70
     32
  0
VERTEX
  8
MY3DLAYER
10
181.93671555397617
20
117.2402565875309
30
2.999999999979556
 70
     32
  0
VERTEX
  8
MY3DLAYER
10
181.98715230397755
20
117.29822096053778
30
2.9999999999795355
 70
     32
  0
VERTEX
  8
MY3DLAYER
10
182.03897810199396
20
117.35416522277119
30
2.9999999999795137
 70
     32
  0
VERTEX
  8
MY3DLAYER
10
182.09221783983062
20
117.40808958889133
30
2.9999999999794924
 70
     32
  0
VERTEX
  8
MY3DLAYER
10
182.14689640929294
20
117.45999427355842
30
2.9999999999794698
 70
     32
  0
VERTEX
  8
MY3DLAYER
10
182.20303870218615
20
117.50987949143266
30
2.9999999999794467
 70
     32
  0
VERTEX
  8
MY3DLAYER
10
182.26066961031552
20
117.55774545717425
30
2.999999999979423
 70
     32
  0
VERTEX
  8
MY3DLAYER
10
182.31981402548647
20
117.60359238544339
30
2.999999999979399
 70
     32
  0
VERTEX
  8
MY3DLAYER
10
182.38049683950422
20
117.64742049090032
30
2.9999999999793743
 70
     32
  0
VERTEX
  8
MY3DLAYER
10
182.4427429441741
20
117.68922998820523
30
2.999999999979349
 70
     32
  0
VERTEX
  8
MY3DLAYER
10
182.50657723130146
20
117.7290210920183
30
2.9999999999793228
 70
     32
  0
VERTEX
  8
MY3DLAYER
10
182.56857865747477
20
117.76659029171331
30
2.9999999999792974
 70
     32
  0
VERTEX
  8
MY3DLAYER
10
182.63173987790628
20
117.80173408000829
30
2.9999999999792717
 70
     32
  0
VERTEX
  8
MY3DLAYER
10
182.696010630337
20
117.8344526765798
30
2.9999999999792455
 70
     32
  0
VERTEX
  8
MY3DLAYER
10
182.76134065250795
20
117.86474630110452
30
2.999999999979219
 70
     32
  0
VERTEX
  8
MY3DLAYER
10
182.8276796821601
20
117.892615173259
30
2.9999999999791918
 70
     32
  0
VERTEX
  8
MY3DLAYER
10
182.89497745703457
20
117.91805951271986
30
2.9999999999791642
 70
     32
  0
VERTEX
  8
MY3DLAYER
10
182.96318371487226
20
117.94107953916372
30
2.9999999999791362
 70
     32
  0
VERTEX
  8
MY3DLAYER
10
183.03224819341426
20
117.96167547226719
30
2.9999999999791083
 70
     32
  0
VERTEX
  8
MY3DLAYER
10
183.10212063040157
20
117.97984753170687
30
2.9999999999790794
 70
     32
  0
VERTEX
  8
MY3DLAYER
10
183.17275076357518
20
117.99559593715938
30
2.9999999999790505
 70
     32
  0
VERTEX
  8
MY3DLAYER
10
183.24408833067614
20
118.00892090830132
30
2.9999999999790212
 70
     32
  0
VERTEX
  8
MY3DLAYER
10
183.31608306944545
20
118.01982266480931
30
2.999999999978992
 70
     32
  0
VERTEX
  8
MY3DLAYER
10
183.38868471762416
20
118.02830142635995
30
2.999999999978962
 70
     32
  0
VERTEX
  8
MY3DLAYER
10
183.46184301295327
20
118.03435741262986
30
2.999999999978932
 70
     32
  0
VERTEX
  8
MY3DLAYER
10
183.53550769317377
20
118.03799084329562
30
2.999999999978902
 70
     32
  0
VERTEX
  8
MY3DLAYER
10
183.6096284960267
20
118.03920193803386
30
2.999999999978872
 70
     32
  0
VERTEX
  8
MY3DLAYER
10
183.65123843085766
20
118.0387982408445
30
2.999999999978855
 70
     32
  0
VERTEX
  8
MY3DLAYER
10
183.69204042187442
20
118.0375871002271
30
2.9999999999788383
 70
     32
  0
VERTEX
  8
MY3DLAYER
10
183.73203446698693
20
118.0355684426078
30
2.999999999978822
 70
     32
  0
VERTEX
  8
MY3DLAYER
10
183.771220564105
20
118.03274219441266
30
2.999999999978806
 70
     32
  0
VERTEX
  8
MY3DLAYER
10
183.8095987111384
20
118.02910828206782
30
2.9999999999787903
 70
     32
  0
VERTEX
  8
MY3DLAYER
10
183.847168905997
20
118.02466663199937
30
2.9999999999787748
 70
     32
  0
VERTEX
  8
MY3DLAYER
10
183.88393114659067
20
118.01941717063339
30
2.9999999999787597
 70
     32
  0
VERTEX
  8
MY3DLAYER
10
183.91988543082914
20
118.013359824396
30
2.999999999978745
 70
     32
  0
VERTEX
  8
MY3DLAYER
10
183.95503175662233
20
118.00649451971331
30
2.9999999999787303
 70
     32
  0
VERTEX
  8
MY3DLAYER
10
183.98937012188006
20
117.99882118301144
30
2.9999999999787166
 70
     32
  0
VERTEX
  8
MY3DLAYER
10
184.02290052451212
20
117.99033974071645
30
2.999999999978703
 70
     32
  0
VERTEX
  8
MY3DLAYER
10
184.05562296242837
20
117.98105011925446
30
2.9999999999786895
 70
     32
  0
VERTEX
  8
MY3DLAYER
10
184.08753743353867
20
117.97095224505156
30
2.999999999978676
 70
     32
  0
VERTEX
  8
MY3DLAYER
10
184.11864393575283
20
117.96004604453388
30
2.9999999999786637
 70
     32
  0
VERTEX
  8
MY3DLAYER
10
184.14894246698066
20
117.94833144412752
30
2.9999999999786513
 70
     32
  0
VERTEX
  8
MY3DLAYER
10
184.178433025132
20
117.93580837025854
30
2.9999999999786393
 70
     32
  0
VERTEX
  8
MY3DLAYER
10
184.21015676706025
20
117.92551864978358
30
2.999999999978626
 70
     32
  0
VERTEX
  8
MY3DLAYER
10
184.24074227689874
20
117.91409116520735
30
2.999999999978614
 70
     32
  0
VERTEX
  8
MY3DLAYER
10
184.2702655928526
20
117.90160188764065
30
2.9999999999786016
 70
     32
  0
VERTEX
  8
MY3DLAYER
10
184.298802753127
20
117.88812678819423
30
2.99999999997859
 70
     32
  0
VERTEX
  8
MY3DLAYER
10
184.3264297959271
20
117.8737418379789
30
2.9999999999785785
 70
     32
  0
VERTEX
  8
MY3DLAYER
10
184.3532227594581
20
117.85852300810544
30
2.999999999978568
 70
     32
  0
VERTEX
  8
MY3DLAYER
10
184.3792576819251
20
117.84254626968463
30
2.999999999978557
 70
     32
  0
VERTEX
  8
MY3DLAYER
10
184.40461060153334
20
117.82588759382728
30
2.999999999978547
 70
     32
  0
VERTEX
  8
MY3DLAYER
10
184.42935755648787
20
117.80862295164414
30
2.9999999999785367
 70
     32
  0
VERTEX
  8
MY3DLAYER
10
184.45357458499396
20
117.790828314246
30
2.999999999978527
 70
     32
  0
VERTEX
  8
MY3DLAYER
10
184.47733772525675
20
117.77257965274363
30
2.9999999999785167
 70
     32
  0
VERTEX
  8
MY3DLAYER
10
184.50072301548136
20
117.75395293824786
30
2.9999999999785074
 70
     32
  0
VERTEX
  8
MY3DLAYER
10
184.52380649387294
20
117.73502414186945
30
2.999999999978498
 70
     32
  0
VERTEX
  8
MY3DLAYER
10
184.5466641986367
20
117.71586923471916
30
2.9999999999784888
 70
     32
  0
VERTEX
  8
MY3DLAYER
10
184.5693721679778
20
117.6965641879078
30
2.9999999999784794
 70
     32
  0
VERTEX
  8
MY3DLAYER
10
184.5920064401014
20
117.67718497254614
30
2.99999999997847
 70
     32
  0
VERTEX
  8
MY3DLAYER
10
184.61118707056048
20
117.6543565999048
30
2.999999999978462
 70
     32
  0
VERTEX
  8
MY3DLAYER
10
184.6299130415044
20
117.63110018289676
30
2.9999999999784546
 70
     32
  0
VERTEX
  8
MY3DLAYER
10
184.6481338816575
20
117.60739030362154
30
2.999999999978447
 70
     32
  0
VERTEX
  8
MY3DLAYER
10
184.66579911974392
20
117.58320154417866
30
2.99999999997844
 70
     32
  0
VERTEX
  8
MY3DLAYER
10
184.682858284488
20
117.55850848666765
30
2.9999999999784333
 70
     32
  0
VERTEX
  8
MY3DLAYER
10
184.69926090461402
20
117.53328571318802
30
2.999999999978426
 70
     32
  0
VERTEX
  8
MY3DLAYER
10
184.71495650884614
20
117.50750780583931
30
2.9999999999784195
 70
     32
  0
VERTEX
  8
MY3DLAYER
10
184.72989462590874
20
117.48114934672103
30
2.9999999999784137
 70
     32
  0
VERTEX
  8
MY3DLAYER
10
184.74402478452606
20
117.45418491793271
30
2.999999999978408
 70
     32
  0
VERTEX
  8
MY3DLAYER
10
184.7572965134223
20
117.42658910157385
30
2.999999999978402
 70
     32
  0
VERTEX
  8
MY3DLAYER
10
184.76965934132173
20
117.398336479744
30
2.9999999999783973
 70
     32
  0
VERTEX
  8
MY3DLAYER
10
184.78106279694867
20
117.36940163454265
30
2.999999999978393
 70
     32
  0
VERTEX
  8
MY3DLAYER
10
184.79145640902735
20
117.33975914806935
30
2.999999999978389
 70
     32
  0
VERTEX
  8
MY3DLAYER
10
184.80078970628205
20
117.30938360242361
30
2.999999999978385
 70
     32
  0
VERTEX
  8
MY3DLAYER
10
184.80901221743702
20
117.27824957970495
30
2.9999999999783813
 70
     32
  0
VERTEX
  8
MY3DLAYER
10
184.81607347121653
20
117.2463316620129
30
2.999999999978378
 70
     32
  0
VERTEX
  8
MY3DLAYER
10
184.82556040275307
20
117.21684585693738
30
2.9999999999783746
 70
     32
  0
VERTEX
  8
MY3DLAYER
10
184.83459633256768
20
117.1865781759903
30
2.9999999999783706
 70
     32
  0
VERTEX
  8
MY3DLAYER
10
184.84313026684276
20
117.15555374862907
30
2.999999999978367
 70
     32
  0
VERTEX
  8
MY3DLAYER
10
184.85111121176064
20
117.12379770431097
30
2.999999999978364
 70
     32
  0
VERTEX
  8
MY3DLAYER
10
184.8584881735037
20
117.09133517249344
30
2.9999999999783613
 70
     32
  0
VERTEX
  8
MY3DLAYER
10
184.8652101582543
20
117.05819128263374
30
2.999999999978358
 70
     32
  0
VERTEX
  8
MY3DLAYER
10
184.8712261721949
20
117.02439116418931
30
2.999999999978356
 70
     32
  0
VERTEX
  8
MY3DLAYER
10
184.87648522150775
20
116.98995994661745
30
2.9999999999783538
 70
     32
  0
VERTEX
  8
MY3DLAYER
10
184.88093631237535
20
116.95492275937556
30
2.999999999978352
 70
     32
  0
VERTEX
  8
MY3DLAYER
10
184.88452845098
20
116.91930473192099
30
2.99999999997835
 70
     32
  0
VERTEX
  8
MY3DLAYER
10
184.8872106435041
20
116.88313099371108
30
2.9999999999783493
 70
     32
  0
VERTEX
  8
MY3DLAYER
10
184.88893189613
20
116.84642667420317
30
2.9999999999783484
 70
     32
  0
VERTEX
  8
MY3DLAYER
10
184.88964121504014
20
116.80921690285466
30
2.999999999978348
 70
     32
  0
VERTEX
  8
MY3DLAYER
10
184.88928760641681
20
116.77152680912289
30
2.9999999999783484
 70
     32
  0
VERTEX
  8
MY3DLAYER
10
184.88782007644247
20
116.73338152246524
30
2.999999999978349
 70
     32
  0
VERTEX
  8
MY3DLAYER
10
184.88518763129943
20
116.69480617233901
30
2.9999999999783498
 70
     32
  0
VERTEX
  8
MY3DLAYER
10
186.84994494633634
20
116.6948061723396
30
2.9999999999775464
 70
     32
  0
VERTEX
  8
MY3DLAYER
10
186.8523661866677
20
116.78469270444134
30
2.999999999977546
 70
     32
  0
VERTEX
  8
MY3DLAYER
10
186.85314901154496
20
116.87336945697312
30
2.9999999999775455
 70
     32
  0
VERTEX
  8
MY3DLAYER
10
186.85226777879268
20
116.96083612163523
30
2.999999999977546
 70
     32
  0
VERTEX
  8
MY3DLAYER
10
186.8496968462354
20
117.04709239012794
30
2.999999999977547
 70
     32
  0
VERTEX
  8
MY3DLAYER
10
186.8454105716977
20
117.13213795415153
30
2.9999999999775486
 70
     32
  0
VERTEX
  8
MY3DLAYER
10
186.83938331300408
20
117.21597250540631
30
2.9999999999775513
 70
     32
  0
VERTEX
  8
MY3DLAYER
10
186.83158942797908
20
117.29859573559256
30
2.9999999999775544
 70
     32
  0
VERTEX
  8
MY3DLAYER
10
186.8220032744473
20
117.38000733641057
30
2.999999999977558
 70
     32
  0
VERTEX
  8
MY3DLAYER
10
186.81059921023322
20
117.4602069995606
30
2.999999999977563
 70
     32
  0
VERTEX
  8
MY3DLAYER
10
186.7973515931614
20
117.53919441674294
30
2.999999999977568
 70
     32
  0
VERTEX
  8
MY3DLAYER
10
186.78223478105642
20
117.61696927965794
30
2.9999999999775744
 70
     32
  0
VERTEX
  8
MY3DLAYER
10
186.76522313174277
20
117.6935312800058
30
2.9999999999775815
 70
     32
  0
VERTEX
  8
MY3DLAYER
10
186.74629100304506
20
117.76888010948686
30
2.999999999977589
 70
     32
  0
VERTEX
  8
MY3DLAYER
10
186.72541275278775
20
117.84301545980142
30
2.9999999999775975
 70
     32
  0
VERTEX
  8
MY3DLAYER
10
186.70256273879545
20
117.91593702264971
30
2.9999999999776072
 70
     32
  0
VERTEX
  8
MY3DLAYER
10
186.67771531889267
20
117.98764448973206
30
2.9999999999776175
 70
     32
  0
VERTEX
  8
MY3DLAYER
10
186.65104655938777
20
118.05813305000532
30
2.999999999977628
 70
     32
  0
VERTEX
  8
MY3DLAYER
10
186.622733124377
20
118.12738154020953
30
2.99999999997764
 70
     32
  0
VERTEX
  8
MY3DLAYER
10
186.59275026836676
20
118.19536512371982
30
2.999999999977652
 70
     32
  0
VERTEX
  8
MY3DLAYER
10
186.56107324586347
20
118.26205896391134
30
2.999999999977665
 70
     32
  0
VERTEX
  8
MY3DLAYER
10
186.52767731137357
20
118.32743822415915
30
2.9999999999776787
 70
     32
  0
VERTEX
  8
MY3DLAYER
10
186.49253771940351
20
118.3914780678384
30
2.999999999977693
 70
     32
  0
VERTEX
  8
MY3DLAYER
10
186.4556297244596
20
118.4541536583242
30
2.9999999999777085
 70
     32
  0
VERTEX
  8
MY3DLAYER
10
186.41692858104838
20
118.51544015899168
30
2.999999999977724
 70
     32
  0
VERTEX
  8
MY3DLAYER
10
186.37640954367626
20
118.57531273321592
30
2.999999999977741
 70
     32
  0
VERTEX
  8
MY3DLAYER
10
186.33404786684955
20
118.63374654437209
30
2.999999999977758
 70
     32
  0
VERTEX
  8
MY3DLAYER
10
186.28981880507482
20
118.69071675583523
30
2.999999999977776
 70
     32
  0
VERTEX
  8
MY3DLAYER
10
186.24369761285834
20
118.7461985309805
30
2.999999999977795
 70
     32
  0
VERTEX
  8
MY3DLAYER
10
186.19565954470667
20
118.80016703318303
30
2.999999999977814
 70
     32
  0
VERTEX
  8
MY3DLAYER
10
186.1456798551262
20
118.85259742581792
30
2.999999999977835
 70
     32
  0
VERTEX
  8
MY3DLAYER
10
186.09373379862325
20
118.9034648722603
30
2.9999999999778564
 70
     32
  0
VERTEX
  8
MY3DLAYER
10
186.03979662970434
20
118.95274453588526
30
2.999999999977878
 70
     32
  0
VERTEX
  8
MY3DLAYER
10
185.98728213506755
20
119.00061282094639
30
2.9999999999779
 70
     32
  0
VERTEX
  8
MY3DLAYER
10
185.93315684445062
20
119.04724568844243
30
2.999999999977922
 70
     32
  0
VERTEX
  8
MY3DLAYER
10
185.87742002629494
20
119.09261763686622
30
2.9999999999779448
 70
     32
  0
VERTEX
  8
MY3DLAYER
10
185.82007094904185
20
119.13670316471054
30
2.9999999999779683
 70
     32
  0
VERTEX
  8
MY3DLAYER
10
185.76110888113269
20
119.17947677046823
30
2.9999999999779954
 70
     32
  0
VERTEX
  8
MY3DLAYER
10
185.70053309100888
20
119.22091295263213
30
2.99999999997802
 70
     32
  0
VERTEX
  8
MY3DLAYER
10
185.6383428471117
20
119.26098620969502
30
2.999999999978045
 70
     32
  0
VERTEX
  8
MY3DLAYER
10
185.57453741788254
20
119.29967104014973
30
2.9999999999780713
 70
     32
  0
VERTEX
  8
MY3DLAYER
10
185.50911607176283
20
119.3369419424891
30
2.999999999978098
 70
     32
  0
VERTEX
  8
MY3DLAYER
10
185.44207807719383
20
119.37277341520594
30
2.9999999999781255
 70
     32
  0
VERTEX
  8
MY3DLAYER
10
185.37342270261692
20
119.40713995679306
30
2.9999999999781535
 70
     32
  0
VERTEX
  8
MY3DLAYER
10
185.30314921647349
20
119.44001606574328
30
2.9999999999781823
 70
     32
  0
VERTEX
  8
MY3DLAYER
10
185.23125688720486
20
119.47137624054943
30
2.9999999999782117
 70
     32
  0
VERTEX
  8
MY3DLAYER
10
185.15774498325248
20
119.50119497970432
30
2.999999999978242
 70
     32
  0
VERTEX
  8
MY3DLAYER
10
185.08261277305758
20
119.52944678170077
30
2.9999999999782725
 70
     32
  0
VERTEX
  8
MY3DLAYER
10
185.00585952506162
20
119.55610614503162
30
2.999999999978304
 70
     32
  0
SEQEND
  0
POLYLINE
 8
Layer0
 66
     1
70
    8
 10
0.0
 20
 0.0
 30
0.0
  0
VERTEX
  8
MY3DLAYER
10
141.74217878020173
20
119.55610614501872
30
2.9999999999959948
 70
     32
  0
VERTEX
  8
MY3DLAYER
10
136.1920872761187
20
119.55610614501707
30
2.999999999998264
 70
     32
  0
VERTEX
  8
MY3DLAYER
10
134.8476915104259
20
111.42033800614864
30
2.999999999998811
 70
     32
  0
VERTEX
  8
MY3DLAYER
10
136.81272763932165
20
111.42033800614922
30
2.9999999999980074
 70
     32
  0
VERTEX
  8
MY3DLAYER
10
137.3469745176295
20
114.69549120649148
30
2.9999999999977884
 70
     32
  0
VERTEX
  8
MY3DLAYER
10
140.5702915984988
20
114.69549120649243
30
2.9999999999964704
 70
     32
  0
VERTEX
  8
MY3DLAYER
10
140.84591493640588
20
116.2812317585352
30
2.999999999996358
 70
     32
  0
VERTEX
  8
MY3DLAYER
10
137.62287666939537
20
116.29823169872924
30
2.9999999999976756
 70
     32
  0
VERTEX
  8
MY3DLAYER
10
137.88122139593733
20
117.9530871242986
30
2.9999999999975704
 70
     32
  0
VERTEX
  8
MY3DLAYER
10
141.46655544229466
20
117.95308712429966
30
2.9999999999961044
 70
     32
  0
VERTEX
  8
MY3DLAYER
10
141.74217878020173
20
119.55610614501872
30
2.9999999999959948
 70
     32
  0
SEQEND
  0
POLYLINE
 8
Layer0
 66
     1
70
    8
 10
0.0
 20
 0.0
 30
0.0
  0
VERTEX
  8
MY3DLAYER
10
173.7674479113525
20
119.64222110143866
30
2.9999999999828995
 70
     32
  0
VERTEX
  8
MY3DLAYER
10
172.06103432403663
20
119.64222110143815
30
2.999999999983597
 70
     32
  0
VERTEX
  8
MY3DLAYER
10
170.71663927178773
20
111.50673163373982
30
2.9999999999841442
 70
     32
  0
VERTEX
  8
MY3DLAYER
10
172.68167482992837
20
111.50673163374037
30
2.9999999999833404
 70
     32
  0
VERTEX
  8
MY3DLAYER
10
173.47454496325952
20
116.21211688501828
30
2.999999999983016
 70
     32
  0
VERTEX
  8
MY3DLAYER
10
173.5263809400435
20
116.2121168850183
30
2.9999999999829945
 70
     32
  0
VERTEX
  8
MY3DLAYER
10
175.97382868390935
20
111.50673163374137
30
2.9999999999819944
 70
     32
  0
VERTEX
  8
MY3DLAYER
10
177.62840486755346
20
111.50673163374186
30
2.999999999981318
 70
     32
  0
VERTEX
  8
MY3DLAYER
10
178.99007952998886
20
119.64222110144023
30
2.999999999980764
 70
     32
  0
VERTEX
  8
MY3DLAYER
10
177.02532221495198
20
119.64222110143965
30
2.9999999999815676
 70
     32
  0
VERTEX
  8
MY3DLAYER
10
176.2497302649196
20
114.95383593304551
30
2.9999999999818807
 70
     32
  0
VERTEX
  8
MY3DLAYER
10
176.18061610483682
20
114.9538359330455
30
2.999999999981909
 70
     32
  0
VERTEX
  8
MY3DLAYER
10
173.7674479113525
20
119.64222110143866
30
2.9999999999828995
 70
     32
  0
SEQEND
  0
POLYLINE
 8
Layer0
 66
     1
70
    8
 10
0.0
 20
 0.0
 30
0.0
  0
VERTEX
  8
MY3DLAYER
10
144.41397037139717
20
119.55610614501953
30
2.999999999994902
 70
     32
  0
VERTEX
  8
MY3DLAYER
10
142.4662128538665
20
119.55610614501893
30
2.9999999999956986
 70
     32
  0
VERTEX
  8
MY3DLAYER
10
141.12181708817369
20
111.4203380061505
30
2.9999999999962457
 70
     32
  0
VERTEX
  8
MY3DLAYER
10
143.06957460570436
20
111.4203380061511
30
2.999999999995449
 70
     32
  0
VERTEX
  8
MY3DLAYER
10
144.41397037139717
20
119.55610614501953
30
2.999999999994902
 70
     32
  0
SEQEND
 0
ENDSEC
 0
EOF
